MUZBANK


МУЗЫКАЛЬНО-ИНФОРМАЦИОННЫЙ БАНК





AAnimals • Baby Let Me Take You Home (аккорды и текст - chords & lyrics)


561

Print

Видео «Baby Let Me Take You Home (Animals)»

Видео клипы к песне подбираются автоматически сайтом youtube. Возможны некоторые несоответствия клипов песне.

↑ Спрятать рекламу ↑






intro
               A       E      A       D       A      E
E|---------------------------------------------------------|
B|---------------------------------------------------------|
G|-----------------------------------------0---------------|
D|-----------------0---------------0---0-4---0-----0-------|
A|-------------0-4---0-----0---0-4---0---------0-4---0-----|
E|-0-0-2-0-3-0---------0-4---0-------------------------0-4-|

       A   G G#
E|-----5-5-3-4-|
B|-----5-5-3-4-|
G|-----6-6-4-5-|
D|-----7-7-5-6-|
A|-0---7-7-5-6-|
E|---0-5-5-3-4-|

verses
     A                    G
(1,3)baby let me take you home
  (2)baby can i dance with you (ah ahh)
  (3)baby let me be your man   (ah ahh)

D                    F
baby let me take you home
baby can i dance with you    (ah ahh)
baby let me be me man        (ah ahh)

A                   E             A            D
ill love you all my life if you can bet ill treat you right
ill do anything in this god almighty world
yes ill be your man and ill do the best i can

A                   E         A E
if youll just let me take you home
if youll just let me dance with you
i wanna be your man

solo
     E       D        E          D        E      D      A
E|-5-7--7-7-10--10-10-12--12-12-10--10-10-7--7-7-5--5-5-5-|
B|-7-9--9-9-10--10-10-12--12-12-10--10-10-9--9-9-7--7-7-5-|
G|-7s9--9-9s11--11-11s13--13-13s11--11-11s9--9-9s7--7-7-6-|
D|--------------------------------------------------------|
A|--------------------------------------------------------|
E|--------------------------------------------------------|

bridge
(spoken)
A
well when i saw you baby i couldnt ignore you
and i wanted you for my girl
and when you said yeah i just coundnt care
about anyone else in this world alone
you smiled at me and i could see my life planned out ahead
you took my hand and it felt so good and this is what you said

outro
D                           A
come on baby (come on baby)(its salright)

Тональность:

Это должно быть в ТОП-листе! - Топ-лист композиций



Назад
Рекомендуем посмотреть другие песни исполнителя «Animals»:

  • Комменты Fb ()
  • Комменты ВК



Добавить в Избранное Браузера
Сохранить здесь Очистить


x

0


+
-

+
-

-

Авторизация





Зарегистрироваться

M

Дата и время

  • 09:31:43
     

Социальные ссылки


Наши приложения

  • Muzbank App Play Market
  • Muzbank Amazon App