MUZBANK


МУЗЫКАЛЬНО-ИНФОРМАЦИОННЫЙ БАНК





AAnimals • The House Of The Rising Sun 2 (аккорды и текст - chords & lyrics)


1034

Print

Видео «The House Of The Rising Sun 2 (Animals)»

Видео клипы к песне подбираются автоматически сайтом youtube. Возможны некоторые несоответствия клипов песне.

↑ Спрятать рекламу ↑





Intro
Am C D F Am Em
e|-------0----|-------0----|-------3----|-------1----|-------0----|-------0----|
B|-----1---1--|-----1---1--|-----2---2--|-----1---1--|-----1---1--|-----0---0--|
G|---2-------2|---0-------0|---3-------3|---2-------2|---2-------2|---0-------0|
D|------------|------------|-0----------|-3----------|-2----------|------------|
A|-0----------|-3----------|------------|------------|------------|-2----------|
E|------------|------------|------------|------------|------------|------------|


Verses

Am C D F
e|----|-------0----|-------0----|-------3----|-------1----|
B|----|-----1---1--|-----1---1--|-----2---2--|-----1---1--|
G|----|---2-------2|---0-------0|---3-------3|---2-------2|
D|--2-|------------|------------|-0----------|-3----------|
A|----|-0----------|-3----------|------------|------------|
E|----|------------|------------|------------|------------|
There is a house in New Orleans

Am C Em Em
e|-------0----|-------0----|-------0----|-------0----|
B|-----1---1--|-----1---1--|-----0---0--|-----0---0--|
G|---2-------2|---0-------0|---0-------0|---0-------0|
D|-2----------|------------|------------|------------|
A|------------|-3----------|-2----------|-2----------|
E|------------|------------|------------|------------|
They call the Rising Sun

Am C D F
e|-------0----|-------0----|-------3----|-------1----|
B|-----1---1--|-----1---1--|-----2---2--|-----1---1--|
G|---2-------2|---0-------0|---3-------3|---2-------2|
D|------------|------------|-0----------|-3----------|
A|-0----------|-3----------|------------|------------|
E|------------|------------|------------|------------|
And its been the ruin of many poor girls

Am Em
e|-------0----|-------0----|
B|-----1---1--|-----0---0--|
G|---2-------2|---0-------0|
D|-2----------|------------|
A|------------|-2----------|
E|------------|------------|
Oh God I know

Am C D F
e|-------0----|-------0----|-------3----|-------1----|
B|-----1---1--|-----1---1--|-----2---2--|-----1---1--|
G|---2-------2|---0-------0|---3-------3|---2-------2|
D|------------|------------|-0----------|-3----------|
A|-0----------|-3----------|------------|------------|
E|------------|------------|------------|------------|
Im one

Am C D F
e|----|-------0----|-------0----|-------3----|-------1----|
B|----|-----1---1--|-----1---1--|-----2---2--|-----1---1--|
G|----|---2-------2|---0-------0|---3-------3|---2-------2|
D|--2-|------------|------------|-0----------|-3----------|
A|----|-0----------|-3----------|------------|------------|
E|----|------------|------------|------------|------------|
My mother was a talor

Am C Em Em
e|-------0----|-------0----|-------0----|-------0----|
B|-----1---1--|-----1---1--|-----0---0--|-----0---0--|
G|---2-------2|---0-------0|---0-------0|---0-------0|
D|-2----------|------------|------------|------------|
A|------------|-3----------|-2----------|-2----------|
E|------------|------------|------------|------------|
She sowed my new blue jeans

Am C D F
e|-------0----|-------0----|-------3----|-------1----|
B|-----1---1--|-----1---1--|-----2---2--|-----1---1--|
G|---2-------2|---0-------0|---3-------3|---2-------2|
D|------------|------------|-0----------|-3----------|
A|-0----------|-3----------|------------|------------|
E|------------|------------|------------|------------|
And my sweet-heart was the gambling loards

Am Em
e|-------0----|-------0----|
B|-----1---1--|-----0---0--|
G|---2-------2|---0-------0|
D|-2----------|------------|
A|------------|-2----------|
E|------------|------------|
Down in New

Am C D F
e|-------0----|-------0----|-------3----|-------1----|
B|-----1---1--|-----1---1--|-----2---2--|-----1---1--|
G|---2-------2|---0-------0|---3-------3|---2-------2|
D|------------|------------|-0----------|-3----------|
A|-0----------|-3----------|------------|------------|
E|------------|------------|------------|------------|
Orleans

Am C D F
e|----|-------0----|-------0----|-------3----|-------1----|
B|----|-----1---1--|-----1---1--|-----2---2--|-----1---1--|
G|----|---2-------2|---0-------0|---3-------3|---2-------2|
D|--2-|------------|------------|-0----------|-3----------|
A|----|-0----------|-3----------|------------|------------|
E|----|------------|------------|------------|------------|
Now the only thing a gambler needs

Am C Em Em
e|-------0----|-------0----|-------0----|-------0----|
B|-----1---1--|-----1---1--|-----0---0--|-----0---0--|
G|---2-------2|---0-------0|---0-------0|---0-------0|
D|-2----------|------------|------------|------------|
A|------------|-3----------|-2----------|-2----------|
E|------------|------------|------------|------------|
Is a suitcase and a trunk

Am C D F
e|-------0----|-------0----|-------3----|-------1----|
B|-----1---1--|-----1---1--|-----2---2--|-----1---1--|
G|---2-------2|---0-------0|---3-------3|---2-------2|
D|------------|------------|-0----------|-3----------|
A|-0----------|-3----------|------------|------------|
E|------------|------------|------------|------------|
And the only time he feals satisfied

Am Em
e|-------0----|-------0----|
B|-----1---1--|-----0---0--|
G|---2-------2|---0-------0|
D|-2----------|------------|
A|------------|-2----------|
E|------------|------------|
Is When He's on

Am C D F
e|-------0----|-------0----|-------3----|-------1----|
B|-----1---1--|-----1---1--|-----2---2--|-----1---1--|
G|---2-------2|---0-------0|---3-------3|---2-------2|
D|------------|------------|-0----------|-3----------|
A|-0----------|-3----------|------------|------------|
E|------------|------------|------------|------------|
A Drunk

Am C D F
e|----|-------0----|-------0----|-------3----|-------1----|
B|----|-----1---1--|-----1---1--|-----2---2--|-----1---1--|
G|----|---2-------2|---0-------0|---3-------3|---2-------2|
D|--2-|------------|------------|-0----------|-3----------|
A|----|-0----------|-3----------|------------|------------|
E|----|------------|------------|------------|------------|
He fills his glasses up to the brim

Am C Em Em
e|-------0----|-------0----|-------0----|-------0----|
B|-----1---1--|-----1---1--|-----0---0--|-----0---0--|
G|---2-------2|---0-------0|---0-------0|---0-------0|
D|-2----------|------------|------------|------------|
A|------------|-3----------|-2----------|-2----------|
E|------------|------------|------------|------------|
And spreads his cards around

Am C D F
e|-------0----|-------0----|-------3----|-------1----|
B|-----1---1--|-----1---1--|-----2---2--|-----1---1--|
G|---2-------2|---0-------0|---3-------3|---2-------2|
D|------------|------------|-0----------|-3----------|
A|-0----------|-3----------|------------|------------|
E|------------|------------|------------|------------|
And the only pleasure he gets out of life

Am Em
e|-------0----|-------0----|
B|-----1---1--|-----0---0--|
G|---2-------2|---0-------0|
D|-2----------|------------|
A|------------|-2----------|
E|------------|------------|
Is to roam from town

Am C D F
e|-------0----|-------0----|-------3----|-------1----|
B|-----1---1--|-----1---1--|-----2---2--|-----1---1--|
G|---2-------2|---0-------0|---3-------3|---2-------2|
D|------------|------------|-0----------|-3----------|
A|-0----------|-3----------|------------|------------|
E|------------|------------|------------|------------|
To town

Am C D F
e|----|-------0----|-------0----|-------3----|-------1----|
B|----|-----1---1--|-----1---1--|-----2---2--|-----1---1--|
G|----|---2-------2|---0-------0|---3-------3|---2-------2|
D|--2-|------------|------------|-0----------|-3----------|
A|----|-0----------|-3----------|------------|------------|
E|----|------------|------------|------------|------------|
Tell my baby sisster

Am C Em Em
e|-------0----|-------0----|-------0----|-------0----|
B|-----1---1--|-----1---1--|-----0---0--|-----0---0--|
G|---2-------2|---0-------0|---0-------0|---0-------0|
D|-2----------|------------|------------|------------|
A|------------|-3----------|-2----------|-2----------|
E|------------|------------|------------|------------|
Not to do what I have done

Am C D F
e|-------0----|-------0----|-------3----|-------1----|
B|-----1---1--|-----1---1--|-----2---2--|-----1---1--|
G|---2-------2|---0-------0|---3-------3|---2-------2|
D|------------|------------|-0----------|-3----------|
A|-0----------|-3----------|------------|------------|
E|------------|------------|------------|------------|
But to shun that house in New Orleans

Am Em
e|-------0----|-------0----|
B|-----1---1--|-----0---0--|
G|---2-------2|---0-------0|
D|-2----------|------------|
A|------------|-2----------|
E|------------|------------|
they call the Ris---

Am C D F
e|-------0----|-------0----|-------3----|-------1----|
B|-----1---1--|-----1---1--|-----2---2--|-----1---1--|
G|---2-------2|---0-------0|---3-------3|---2-------2|
D|------------|------------|-0----------|-3----------|
A|-0----------|-3----------|------------|------------|
E|------------|------------|------------|------------|
-ing Sun

Am C D F
e|----|-------0----|-------0----|-------3----|-------1----|
B|----|-----1---1--|-----1---1--|-----2---2--|-----1---1--|
G|----|---2-------2|---0-------0|---3-------3|---2-------2|
D|--2-|------------|------------|-0----------|-3----------|
A|----|-0----------|-3----------|------------|------------|
E|----|------------|------------|------------|------------|
Now my left foot is on a platform

Am C Em Em
e|-------0----|-------0----|-------0----|-------0----|
B|-----1---1--|-----1---1--|-----0---0--|-----0---0--|
G|---2-------2|---0-------0|---0-------0|---0-------0|
D|-2----------|------------|------------|------------|
A|------------|-3----------|-2----------|-2----------|
E|------------|------------|------------|------------|
And my right is on a train

Am C D F
e|-------0----|-------0----|-------3----|-------1----|
B|-----1---1--|-----1---1--|-----2---2--|-----1---1--|
G|---2-------2|---0-------0|---3-------3|---2-------2|
D|------------|------------|-0----------|-3----------|
A|-0----------|-3----------|------------|------------|
E|------------|------------|------------|------------|
And I'm going back to New Orleans

Am Em
e|-------0----|-------0----|
B|-----1---1--|-----0---0--|
G|---2-------2|---0-------0|
D|-2----------|------------|
A|------------|-2----------|
E|------------|------------|
To wear That ball

Am C D F
e|-------0----|-------0----|-------3----|-------1----|
B|-----1---1--|-----1---1--|-----2---2--|-----1---1--|
G|---2-------2|---0-------0|---3-------3|---2-------2|
D|------------|------------|-0----------|-3----------|
A|-0----------|-3----------|------------|------------|
E|------------|------------|------------|------------|
And chain

Am C D F
e|----|-------0----|-------0----|-------3----|-------1----|
B|----|-----1---1--|-----1---1--|-----2---2--|-----1---1--|
G|----|---2-------2|---0-------0|---3-------3|---2-------2|
D|--2-|------------|------------|-0----------|-3----------|
A|----|-0----------|-3----------|------------|------------|
E|----|------------|------------|------------|------------|
I'm going back to New Orleans

Am C Em Em
e|-------0----|-------0----|-------0----|-------0----|
B|-----1---1--|-----1---1--|-----0---0--|-----0---0--|
G|---2-------2|---0-------0|---0-------0|---0-------0|
D|-2----------|------------|------------|------------|
A|------------|-3----------|-2----------|-2----------|
E|------------|------------|------------|------------|
My race is almost run

Am C D F
e|-------0----|-------0----|-------3----|-------1----|
B|-----1---1--|-----1---1--|-----2---2--|-----1---1--|
G|---2-------2|---0-------0|---3-------3|---2-------2|
D|------------|------------|-0----------|-3----------|
A|-0----------|-3----------|------------|------------|
E|------------|------------|------------|------------|
And I'm going back to end my life

Am Em
e|-------0----|-------0----|
B|-----1---1--|-----0---0--|
G|---2-------2|---0-------0|
D|-2----------|------------|
A|------------|-2----------|
E|------------|------------|
Down in The Rising

Am C D F
e|-------0----|-------0----|-------3----|-------1----|
B|-----1---1--|-----1---1--|-----2---2--|-----1---1--|
G|---2-------2|---0-------0|---3-------3|---2-------2|
D|------------|------------|-0----------|-3----------|
A|-0----------|-3----------|------------|------------|
E|------------|------------|------------|------------|
Sun

Am C D F
e|----|-------0----|-------0----|-------3----|-------1----|
B|----|-----1---1--|-----1---1--|-----2---2--|-----1---1--|
G|----|---2-------2|---0-------0|---3-------3|---2-------2|
D|--2-|------------|------------|-0----------|-3----------|
A|----|-0----------|-3----------|------------|------------|
E|----|------------|------------|------------|------------|
Oh there is a house in New Orleans

Am C Em Em
e|-------0----|-------0----|-------0----|-------0----|
B|-----1---1--|-----1---1--|-----0---0--|-----0---0--|
G|---2-------2|---0-------0|---0-------0|---0-------0|
D|-2----------|------------|------------|------------|
A|------------|-3----------|-2----------|-2----------|
E|------------|------------|------------|------------|
They call the Rising Sun

Am C D F
e|-------0----|-------0----|-------3----|-------1----|
B|-----1---1--|-----1---1--|-----2---2--|-----1---1--|
G|---2-------2|---0-------0|---3-------3|---2-------2|
D|------------|------------|-0----------|-3----------|
A|-0----------|-3----------|------------|------------|
E|------------|------------|------------|------------|
And its been the ruin of many poor girls

Am Em
e|-------0----|-------0----|
B|-----1---1--|-----0---0--|
G|---2-------2|---0-------0|
D|-2----------|------------|
A|------------|-2----------|
E|------------|------------|
And God I know

Am C D F
e|-------0----|-------0----|-------3----|-------1----|
B|-----1---1--|-----1---1--|-----2---2--|-----1---1--|
G|---2-------2|---0-------0|---3-------3|---2-------2|
D|------------|------------|-0----------|-3----------|
A|-0----------|-3----------|------------|------------|
E|------------|------------|------------|------------|
Im one

Тональность:

Это должно быть в ТОП-листе! - Топ-лист композиций



Назад
Рекомендуем посмотреть другие песни исполнителя «Animals»:

  • Комменты Fb ()
  • Комменты ВК



Добавить в Избранное Браузера
Сохранить здесь Очистить


x

0


+
-

+
-

-

Авторизация





Зарегистрироваться

M

Дата и время

  • 01:29:10
     

Социальные ссылки


Наши приложения

  • Muzbank App Play Market
  • Muzbank Amazon App