MUZBANK


МУЗЫКАЛЬНО-ИНФОРМАЦИОННЫЙ БАНК





AAntonio Banderos • Mariachi 2 (аккорды и текст - chords & lyrics)


666

Print

Видео «Mariachi 2 (Antonio Banderos)»

Видео клипы к песне подбираются автоматически сайтом youtube. Возможны некоторые несоответствия клипов песне.

↑ Спрятать рекламу ↑





--
Соло

E|--------------12---------------------11---------------|
B|----12-----12----12----12--------12------12--10--12---|
G|-9------12----------12--------------------------------|
D|---------------------------9------------------------9-|
A|------------------------------------------------------|
E|------------------------------------------------------|

E|----11------------------12-----------------12------------|
B|-12----12-10-12------12----12----12-----12----12----12---|
G|------------------------------12-----------------12------|
D|-----------------9------------------9------------------9-|
A|---------------------------------------------------------|
E|---------------------------------------------------------|

E|----11------------|-11--------------------12--------------12-|
B|-12----12-10-12--------10-12-----10-12-------------12--------|
G|------------------------------------------------12-----------|
D|----------------9------------9----------9--------------9-----|
A|-------------------------------------------------------------|
E|-------------------------------------------------------------|

E|---------12-|-------10----10--8------8---7---7---5---5--3--3-|
B|----12-----------12----12--------10--------8-------7------5--|
G|-12-----------12---------------------------------------------|
D|-------9-----------------------------------------------------|
A|-------------------------------------------------------------|
E|-------------------------------------------------------------|

E|-2---3--0---0------------------------------------------------|
B|---3------0----3--0--1--0------------------------------------|
G|--------------------------4--2--4--5-4-2-------2-------------|
D|-----------------------------------------5-4-----5-4-2-~~~---|
A|-----------------------------------------------------------2-|
E|-------------------------------------------------------------|

E|-----------------------------------------------------------|
B|-----------------------------------------------------------|
G|-------8--9--11----------10--11--12-----------8--9--11-----|
D|-9--9--------------9--9-----------------9--9-------------9-|
A|-----------------------------------------------------------|
E|-----------------------------------------------------------|

E|-7--5--3--2--0-|
B|---------------|
G|-8--5--4--2--0-|
D|---------------|
A|---------------|
E|---------------|

Тональность:

Это должно быть в ТОП-листе! - Топ-лист композиций



Назад
Рекомендуем посмотреть другие песни исполнителя «Antonio Banderos»:

  • Комменты Fb ()
  • Комменты ВК



Добавить в Избранное Браузера
Сохранить здесь Очистить


x

0


+
-

+
-

-

Авторизация





Зарегистрироваться

M

Дата и время

  • 08:37:51
     

Социальные ссылки


Наши приложения

  • Muzbank App Play Market
  • Muzbank Amazon App