MUZBANK



A MOST COMPLETE BANK OF MUSIC INFORMATION

МУЗЫКАЛЬНО-ИНФОРМАЦИОННЫЙ БАНК







    AApocalyptica • Mig (аккорды и текст - chords & lyrics)


    316

    Print

    Видео «Mig (Apocalyptica)»

    Видео клипы к песне подбираются автоматически сайтом youtube. Возможны некоторые несоответствия клипов песне.

    ↑ Спрятать рекламу ↑





    (Bass intro)
    
    e|don't use
    b|---------|---------|
    g|---------|---------|
    d|-4--0----|-3--0----| Repeat x2
    a|---------|---------|
    D|4-4-0----|3-3-0----|
    
    e|don't use
    b|---------|---------|
    g|-4--0----|-3--0----|
    d|---------|---------| Repeat x2
    a|4-4-0----|3-3-0----|
    D|---------|---------|
    
    Repeat both lines twice in order (Line 1, Line 2, Line 1, Line 2. Do
    that twice)
    
    e|don't use
    b|-4--0----|-3--0--3-3|
    g|---------|----------|
    d|4-4-0----|3-3-0-----| Repeat x2
    a|---------|----------|
    D|---------|----------|
    
    (Bass ending)
    

    Тональность:

    Это должно быть в ТОП-листе! - Топ-лист композиций



    Назад
    Рекомендуем посмотреть другие песни исполнителя «Apocalyptica»:

    • Комменты Fb ()
    • Комменты ВК



    Добавить в Избранное Браузера
    Сохранить здесь Очистить


    x

    0


    +
    -

    +
    -

    -

    Авторизация





    Зарегистрироваться

    M

    Дата и время

    • 05:20:46
       

    Социальные ссылки


    Наши приложения

    • Muzbank App Play Market
    • Muzbank Amazon App