MUZBANK


МУЗЫКАЛЬНО-ИНФОРМАЦИОННЫЙ БАНК





AApocalyptica • Prologue (Apprehension) (аккорды и текст - chords & lyrics)


598

Print

Видео «Prologue (Apprehension) (Apocalyptica)»

Видео клипы к песне подбираются автоматически сайтом youtube. Возможны некоторые несоответствия клипов песне.

↑ Спрятать рекламу ↑





Tabulature with Standart Guitar Tuning and Drop-D


/Intro:/ 
E||--------------------------|-----------------1--------|
B||--3--4--3-----------1--3--|--1-----------3-----3-----|
G||--------------------------|--------------------------|
D||-----------0--0--0--------|-----0--0--0-----------0--|
A||--------------------------|--------------------------|
D||--------------------------|--------------------------|


--------------------------|-----------------1--------|
--3--4--3-----------1--3--|--1-----------3-----3-----|
-----------0--0--0--------|--------------------------|
--------------------------|-----3--3--3-----------3--|
--------------------------|--------------------------|
--------------------------|--------------------------|

--------------------------|-----------------1--------|
--3--4--3-----------1--3--|--1-----------3-----3-----|
--------------------------|--------------------------|
-----------0--0--0--------|-----0--0--0-----------0--|
--------------------------|--------------------------|
--------------------------|--------------------------|


                             |----3----|    |----3----|     
--------------------------|--1----0----1----2----1----2----|
--3--4--3-----------1--3--|--------------------------------|
-----------0--0--0--------|--------------------------------|
--------------------------|--------------------------------|
--------------------------|--------------------------------|
--------------------------|--------------------------------|


/Verse: Gtr.1/

--------------------------|--------------------------|
--------------------------|--------------------------|
--------------------------|--------------------------|
--------------------------|-----------------0--------|
--------------------------|--------------3-----3-----|
--5--5--5--5--5--5--5--5--|--5--5--5--5-----------5--|

 
--------------------------|--------------------------|
--------------------------|--------------------------|
--------------------------|--------------------------|
--------------------------|-----------------0--------|
--------------------------|--------------3-----3-----|
--3--3--3--3--3--3--3--3--|--3--3--3--3-----------3--|


--------------------------|--------------------------|
--------------------------|--------------------------|
--------------------------|--------------------------|
--------------------------|--------------------------|
--------------------------|--------------------0-----|
--0--0--0--0--0--0--0--0--|--0--0--0--0--0--5-----0--|


--------------------------|--------------------------|
--------------------------|--------------------------|
--------------------------|--------------------------|
--------------------------|--------------------------|
-----------------0--1-----|-----------------1--3-----|
--1--1--1--1--1--------1--|--3--3--3--3--3--------3--|


--------------------------|--------------------------|
--------------------------|--------------------------|
--------------------------|--------------------------|
--------------------------|-----------------0--------|
--------------------------|--------------3-----3-----|
--5--5--5--5--5--5--5--5--|--5--5--5--5-----------5--|


--------------------------|--------------------------|
--------------------------|--------------------------|
--------------------------|--------------------------|
--------------------------|-----------------0--------|
--------------------------|--------------3-----3-----|
--3--3--3--3--3--3--3--3--|--3--3--3--3-----------3--|


--------------------------|--------------------------|
--------------------------|--------------------------|
--------------------------|--------------------------|
--------------------------|--------------------------|
--------------------------|--------------------0-----|
--0--0--0--0--0--0--0--0--|--0--0--0--0--0--5-----0--|

             
--------------------------|--------------------------|-------------------|
--------------------------|--------------------------|-------------------|
--------------------------|--------------------------|-------------------|
--------------------------|--------------------------|-------------------|
-----------------0--1-----|-----------------1--3-----|--0----------------|
--1--1--1--1--1--------1--|--3--3--3--3--3--------3--|--0----------------|

                
-------------------|-------------------|-------------------|-------------------|
-------------------|-------------------|-------------------|-------------------|
-------------------|-------------------|-------------------|-------------------|
-------------------|-------------------|-------------------|-------------------|
--1----------------|-------------------|--3----------------|--0----------------|
--1----------------|--5----------------|--3----------------|--0----------------|

   
-------------------|-------------------|-------------------|
-------------------|-------------------|-------------------|
-------------------|-------------------|-------------------|
-------------------|-------------------|-------------------|
--1----------------|-------------------|--1----------------|
--1----------------|--5----------------|--1----------------|


--------------------------|-----------------1--------|
--3--4--3-----------1--3--|--1-----------3-----3-----|
--------------------------|--------------------------|
-----------0--0--0--------|-----0--0--0-----------0--|
--------------------------|--------------------------|
--------------------------|--------------------------|


--------------------------|-----------------1--------|
--3--4--3-----------1--3--|--1-----------3-----3-----|
-----------0--0--0--------|--------------------------|
--------------------------|-----3--3--3-----------3--|
--------------------------|--------------------------|
--------------------------|--------------------------|


--------------------------|-----------------1--------|
--3--4--3-----------1--3--|--1-----------3-----3-----|
--------------------------|--------------------------|
-----------0--0--0--------|-----0--0--0-----------0--|
--------------------------|--------------------------|
--------------------------|--------------------------|


                             |----3----|    |----3----|        
--------------------------|--1----0----1----2----1----2----|
--3--4--3-----------1--3--|--------------------------------|
-----------0--0--0--------|--------------------------------|
--------------------------|--------------------------------|
--------------------------|--------------------------------|
--------------------------|--------------------------------|

/Verse: Gtr.2/
-----------------------|--1-------------------|-----------------------|
-----------------1--3--|-------3--1--3--------|-----------------1--3--|
-----------------------|----------------------|-----------------------|
-----------------------|----------------------|-----------------------|
-----------------------|----------------------|-----------------------|
-----------------------|----------------------|-----------------------|


  |----3----|                                                           
--1---------1----3--------|------------3----1----|--6------3------1----|
-------3------------------|----------------------|---------------------|
--------------------------|----------------------|---------------------|
--------------------------|----------------------|---------------------|
--------------------------|----------------------|---------------------|
--------------------------|----------------------|---------------------|


--3--------5--------|--x--------6--------|----------------------|
--------------------|--------------------|----------------------|
--------------------|--------------------|------------5----7----|
--------------------|--------------------|----------------------|
--------------------|--------------------|----------------------|
--------------------|--------------------|----------------------|


--6------5------3----|--5------------------|--------------------|
---------------------|---------6------6----|--6-----------------|
---------------------|---------------------|---------------7----|
---------------------|---------------------|--------------------|
---------------------|---------------------|--------------------|
---------------------|---------------------|--------------------|

 
--------------------|--5--------3----1----|--3--------5--------|
--6--------8--------|---------------------|--------------------|
--------------------|---------------------|--------------------|
--------------------|---------------------|--------------------|
--------------------|---------------------|--------------------|
--------------------|---------------------|--------------------|

  
--x--------6--------|--5------3------1----|--3----------------|
--------------------|---------------------|-------------------|
--------------------|---------------------|-------------------|
--------------------|---------------------|-------------------|
--------------------|---------------------|-------------------|
--------------------|---------------------|-------------------|

  
--6--------5----3----|--5--------6--------|--5------3------1----|
---------------------|--------------------|---------------------|
---------------------|--------------------|---------------------|
---------------------|--------------------|---------------------|
---------------------|--------------------|---------------------|
---------------------|--------------------|---------------------|

        
--3----------------|---------3-----------|--------------------|
-------------------|--4-------------4----|--3--------1--------|
-------------------|---------------------|--------------------|
-------------------|---------------------|--------------------|
-------------------|---------------------|--------------------|
-------------------|---------------------|--------------------|

                            
-------------------|----------------------|
--3----------------|--x-------------------|
-------------------|----------------------|
-------------------|----------------------|
-------------------|----------------------|
-------------------|----------------------|



/Chorus:  Gtr.1 /

||---3----6--8--10--8--6--3--|--x----6--8--10--8--6----|
||---------------------------|-------------------------|
||*--------------------------|-------------------------|
||*--------------------------|-------------------------|
||---------------------------|-------------------------|
||---------------------------|-------------------------|

   
--1----6--8--10--8--6--13--|---x----10--8--10--8--6-----|--5------6------8----|
---------------------------|-------------------------8--|---------------------|
---------------------------|----------------------------|---------------------|
---------------------------|----------------------------|---------------------|
---------------------------|----------------------------|---------------------|
---------------------------|----------------------------|---------------------|

    
--5----6--8----6--3----|--6--5--6------5--3----|--5--3--5------3--1-----||
-----------------------|-----------------------|------------------------||
-----------------------|-----------------------|-----------------------*||
-----------------------|-----------------------|-----------------------*||
-----------------------|-----------------------|------------------------||
-----------------------|-----------------------|------------------------||

                                                  
--5--3--5------8--10----|
------------------------|
------------------------|
------------------------|
------------------------|
------------------------|




/Chorus:  Gtr.2 /


 
|---------------------------|--------------------------|
|---------------------------|--------------------------|
|*--------------------------|--------------------------|
|*--------------------------|-----------------0--------|
|---------------------------|--------------3-----3-----|
|---5--5--5--5--5--5--5--5--|--5--5--5--5-----------5--|

 
--------------------------|--------------------------|
--------------------------|--------------------------|
--------------------------|--------------------------|
--------------------------|-----------------0--------|
--------------------------|--------------3-----3-----|
--3--3--3--3--3--3--3--3--|--3--3--3--3-----------3--|


--------------------------|--------------------------|
--------------------------|--------------------------|
--------------------------|--------------------------|
--------------------------|--------------------------|
--------------------------|--------------------0-----|
--0--0--0--0--0--0--0--0--|--0--0--0--0--0--5-----0--|

        
--------------------------|---------------------------||-----|
--------------------------|---------------------------||-----|
--------------------------|--------------------------*||-----|
--------------------------|--------------------------*||-----|
-----------------0--1-----|-----------------1--3------||-----|
--1--1--1--1--1--------1--|--3--3--3--3--3--------3---||-----|

Тональность:

Это должно быть в ТОП-листе! - Топ-лист композиций



Назад
Рекомендуем посмотреть другие песни исполнителя «Apocalyptica»:

  • Комменты Fb ()
  • Комменты ВК



Добавить в Избранное Браузера
Сохранить здесь Очистить


x

0


+
-

+
-

-

Авторизация





Зарегистрироваться

M

Дата и время

  • 01:44:27
     

Социальные ссылки


Наши приложения

  • Muzbank App Play Market
  • Muzbank Amazon App