MUZBANK


МУЗЫКАЛЬНО-ИНФОРМАЦИОННЫЙ БАНК





AArch Enemy • Avalanche (аккорды и текст - chords & lyrics)


778

Print

Видео «Avalanche (Arch Enemy)»

Видео клипы к песне подбираются автоматически сайтом youtube. Возможны некоторые несоответствия клипов песне.

↑ Спрятать рекламу ↑





A fistful of fear in my hands
A bullet of betrayal in my brain
No progress comes from pleasure
We smile in ignorance and learn in pain

Willful deceit was your plan
Desperately avoid the blame
Who will you answer to now?
Sharpened your shovels
Just to dig your grave

Stand up because the ground is in your way
I won't give you any piece
Yet still you talk
Try to fight but I will watch you fall
Fall

This is sweet revenge
And karma's a bitch
You glutton for punishment
What did you expect?

Sick, sick, sick
I'm sick of being your martyr
Your inglated ego is just dead weight
Bask in all the eyes upon you
Before you know it
The'll have turned away

Stand up as the whole world turns away
I won't give you any peace
Yet still you talk
Try to fight but I will watch you fall
Fall

This is sweet revenge
And karma's a bitch
You glutton for punishment
What did you expect?

Wait and see
Cry yourself a lonesome creek

Your decaying corpse
Can feed the roots
Of my towering free

Just wait and see
You're dead to me

Yet still you speak
Trying to justify what you're doing to me

I will watch you fall
Fall

This is sweet revenge
And karma's a bitch
You glutton for punishment
What did you
What did you expect?

[Rhythm Guitar]
 
D||-------------------|-------------------|--------------------------|
A||-------------------|-------------------|--------------------------|
F||-------------------|-------------------|--------------------------|
C||-------------------|-------------------|--------------------------|
G||-------------------|-------------------|--------------------------|
C||-------------------|-------------------|--------------------------|


----------------------------------|----------------------------------|
----------------------------------|----------------------------------|
----------------------------------|----------------------------------|
----------------------------------|----------------------------------|
--0-0-0-0-0-0-0-0-0-0-0-0-0-0-0-0-|--0-0-0-0-0-0-0-0-0-0-0-0-0-0-0-0-|
--0-0-0-0-0-0-0-0-0-0-0-0-0-0-0-0-|--0-0-0-0-0-0-0-0-0-0-0-0-0-0-0-0-|


----------------------------------|----------------------------------|
----------------------------------|----------------------------------|
--7-7-7-7-7-7-7-7-5-5-5-5-5-5-5-5-|--3-3-3-3-3-3-3-3-----------------|
----------------------------------|------------------5-5-5-5-5-5-5-5-|
--5-5-5-5-5-5-5-5-3-3-3-3-3-3-3-3-|--1-1-1-1-1-1-1-1-----------------|
----------------------------------|------------------5-5-5-5-5-5-5-5-|


     PM PM PM PM PM PM PM                
----------------------------------------|
----------------------------------------|
----------------------------------------|
--0-------------------------------------|
--0--------------------0--0-1-0-2-0-1-0-|
--0--0--0--0--0--0--0--0--0-0-0-0-0-0-0-|


     PM PM PM PM PM PM PM                
----------------------------------------|
----------------------------------------|
----------------------------------------|
--1-------------------------------------|
--1--------------------1--1-2-1-3-1-2-1-|
--1--1--1--1--1--1--1--1--1-1-1-1-1-1-1-|


     PM PM PM PM PM PM PM                
----------------------------------------|
----------------------------------------|
----------------------------------------|
--0-------------------------------------|
--0--------------------0--0-1-0-2-0-1-0-|
--0--0--0--0--0--0--0--0--0-0-0-0-0-0-0-|


     PM PM PM PM PM PM PM                 
                                |--3--|   
-----------------------------------------|
-----------------------------------------|
-----------------------------------------|
--1--------------------------------------|
--1--------------------1--------4--3--1--|
--1--1--1--1--1--1--1--1--------4--3--1--|


     PM PM PM PM PM PM PM                
----------------------------------------|
----------------------------------------|
----------------------------------------|
--0-------------------------------------|
--0--------------------0--0-1-0-2-0-1-0-|
--0--0--0--0--0--0--0--0--0-0-0-0-0-0-0-|


     PM PM PM PM PM PM PM                
----------------------------------------|
----------------------------------------|
----------------------------------------|
--1-------------------------------------|
--1--------------------1--1-2-1-3-1-2-1-|
--1--1--1--1--1--1--1--1--1-1-1-1-1-1-1-|


     PM PM PM PM PM PM PM                
----------------------------------------|
----------------------------------------|
----------------------------------------|
--0-------------------------------------|
--0--------------------0--0-1-0-2-0-1-0-|
--0--0--0--0--0--0--0--0--0-0-0-0-0-0-0-|


     PM PM PM PM PM PM PM                                                 
                                |--3--| 
-----------------------------------------|-------------------------------|
-----------------------------------------|-------------------------------|
-----------------------------------------|-------------------------------|
--1--------------------------------------|--7--------------5------3------|
--1--------------------1--------4--3--1--|--5--------------3------1------|
--1--1--1--1--1--1--1--1--------4--3--1--|-----0-0-0-0-0-0----0-0----0-0-|



---------------------------------|-------------------------------|
---------------------------------|-------------------------------|
---------------------------------|-------------------------------|
--7------------------------------|--7--------------5------3------|
--5------------------------------|--5--------------3------1------|
-----0-0-0-0-0-0-0-0-0-0-0-0-0-0-|-----0-0-0-0-0-0----0-0----0-0-|



---------------------------------|--------------------------------|
---------------------------------|--------------------------------|
---------------------------------|--------------------------------|
--7------------------------------|--3--------------4--------------|
--5------------------------------|--1--1-1-1-1-1-1-2--2-2-2-2-2-2-|
-----0-0-0-0-0-0-0-0-0-0-0-0-0-0-|--------------------------------|

       
--------------------------------|--------------------|--------------------|
--------------------------------|--------------------|--------------------|
--------------------------------|--------------------|--------------------|
--5--------------6--------------|--------------------|--------------------|
--3--3-3-3-3-3-3-4--4-4-4-4-4-4-|--0--------8--------|--3--------2--------|
--------------------------------|--0--------8--------|--3--------2--------|


        
--------------------|--------------------|-------------------|
--------------------|--------------------|-------------------|
--------------------|--------------------|-------------------|
--------------------|--------------------|--3----------------|
--0--------8--------|--3--------2--------|--1----------------|
--0--------8--------|--3--------2--------|--1----------------|


    
-------------------|-------------------|--------------------|
-------------------|-------------------|--------------------|
-------------------|-------------------|--------------------|
-------------------|-------------------|--------------------|
--5----------------|--0----------------|--5--------7--------|
--5----------------|--0----------------|--5--------7--------|


                         PM PM PM PM PM PM PM                 
-------------------|----------------------------------------|
-------------------|----------------------------------------|
-------------------|----------------------------------------|
-------------------|--0-------------------------------------|
-------------------|--0--------------------0--0-1-0-2-0-1-0-|
-------------------|--0--0--0--0--0--0--0--0--0-0-0-0-0-0-0-|


     PM PM PM PM PM PM PM  
----------------------------------------|
----------------------------------------|
----------------------------------------|
--1-------------------------------------|
--1--------------------1--1-2-1-3-1-2-1-|
--1--1--1--1--1--1--1--1--1-1-1-1-1-1-1-|


     PM PM PM PM PM PM PM                 
----------------------------------------|
----------------------------------------|
----------------------------------------|
--0-------------------------------------|
--0--------------------0--0-1-0-2-0-1-0-|
--0--0--0--0--0--0--0--0--0-0-0-0-0-0-0-|


     PM PM PM PM PM PM PM                 
                                |--3--| 
-----------------------------------------|
-----------------------------------------|
-----------------------------------------|
--1--------------------------------------|
--1--------------------1--------4--3--1--|
--1--1--1--1--1--1--1--1--------4--3--1--|


     PM PM PM PM PM PM PM                 
----------------------------------------|
----------------------------------------|
----------------------------------------|
--0-------------------------------------|
--0--------------------0--0-1-0-2-0-1-0-|
--0--0--0--0--0--0--0--0--0-0-0-0-0-0-0-|


     PM PM PM PM PM PM PM 
----------------------------------------|
----------------------------------------|
----------------------------------------|
--1-------------------------------------|
--1--------------------1--1-2-1-3-1-2-1-|
--1--1--1--1--1--1--1--1--1-1-1-1-1-1-1-|


     PM PM PM PM PM PM PM                
----------------------------------------|
----------------------------------------|
----------------------------------------|
--0-------------------------------------|
--0--------------------0--0-1-0-2-0-1-0-|
--0--0--0--0--0--0--0--0--0-0-0-0-0-0-0-|


     PM PM PM PM PM PM PM                                                 
                                |--3--|                                   
-----------------------------------------|-------------------------------|
-----------------------------------------|-------------------------------|
-----------------------------------------|-------------------------------|
--1--------------------------------------|--7--------------5------3------|
--1--------------------1--------4--3--1--|--5--------------3------1------|
--1--1--1--1--1--1--1--1--------4--3--1--|-----0-0-0-0-0-0----0-0----0-0-|



---------------------------------|-------------------------------|
---------------------------------|-------------------------------|
---------------------------------|-------------------------------|
--7------------------------------|--7--------------5------3------|
--5------------------------------|--5--------------3------1------|
-----0-0-0-0-0-0-0-0-0-0-0-0-0-0-|-----0-0-0-0-0-0----0-0----0-0-|


 
---------------------------------|--------------------------------|
---------------------------------|--------------------------------|
---------------------------------|--------------------------------|
--7------------------------------|--3--------------4--------------|
--5------------------------------|--1--1-1-1-1-1-1-2--2-2-2-2-2-2-|
-----0-0-0-0-0-0-0-0-0-0-0-0-0-0-|--------------------------------|


    
--------------------------------|--------------------|--------------------|
--------------------------------|--------------------|--------------------|
--------------------------------|--------------------|--------------------|
--5--------------6--------------|--------------------|--------------------|
--3--3-3-3-3-3-3-4--4-4-4-4-4-4-|--0--------8--------|--3--------2--------|
--------------------------------|--0--------8--------|--3--------2--------|


               
--------------------|--------------------|-------------------|
--------------------|--------------------|-------------------|
--------------------|--------------------|-------------------|
--------------------|--------------------|--3----------------|
--0--------8--------|--3--------2--------|--1----------------|
--0--------8--------|--3--------2--------|--1----------------|


    
-------------------|-------------------|--------------------|
-------------------|-------------------|--------------------|
-------------------|-------------------|--------------------|
-------------------|-------------------|--------------------|
--5----------------|--0----------------|--5--------7--------|
--5----------------|--0----------------|--5--------7--------|





----------------------------------|----------------------------------|
----------------------------------|----------------------------------|
----------------------------------|----------------------------------|
----------------------------------|----------------------------------|
--0-0-0-0-0-0-0-0-0-0-0-0-0-0-0-0-|--0-0-0-0-0-0-0-0-0-0-0-0-0-0-0-0-|
--0-0-0-0-0-0-0-0-0-0-0-0-0-0-0-0-|--0-0-0-0-0-0-0-0-0-0-0-0-0-0-0-0-|


----------------------------------|----------------------------------|
----------------------------------|----------------------------------|
--7-7-7-7-7-7-7-7-5-5-5-5-5-5-5-5-|--3-3-3-3-3-3-3-3-----------------|
----------------------------------|------------------5-5-5-5-5-5-5-5-|
--5-5-5-5-5-5-5-5-3-3-3-3-3-3-3-3-|--1-1-1-1-1-1-1-1-----------------|
----------------------------------|------------------5-5-5-5-5-5-5-5-|


----------------------------------|----------------------------------|
----------------------------------|----------------------------------|
----------------------------------|----------------------------------|
----------------------------------|----------------------------------|
--0-------------------------------|--0-------------------------------|
--0-0-0-0-0-0-0-0-0-0-0-0-0-0-0-0-|--0-0-0-0-0-0-0-0-0-0-0-0-0-0-0-0-|


----------------------|----------------------|
----------------------|----------------------|
----------------------|----------------------|
----------------------|----------------------|
--7----3----5----2----|--3----0----2----5----|
--7----3----5----2----|--3----0----2----5----|



----------------------------------|----------------------------------|
----------------------------------|----------------------------------|
----------------------------------|----------------------------------|
----------------------------------|----------------------------------|
--0-------------------------------|--0-------------------------------|
--0-0-0-0-0-0-0-0-0-0-0-0-0-0-0-0-|--0-0-0-0-0-0-0-0-0-0-0-0-0-0-0-0-|



----------------------|----------------------|-----------------------|
----------------------|----------------------|-----------------------|
----------------------|----------------------|-----------------------|
----------------------|----------------------|-----------------------|
--7----3----5----2----|--3----0----2----5----|--10----7----8----5----|
--7----3----5----2----|--3----0----2----5----|-----------------------|



----------------------|---------------------------------|
----------------------|---------------------------------|
----------------------|---------------------------------|
----------------------|---------------------------------|
--7----3----5----8----|--1------------------------------|
----------------------|--1--1-1-1-1-1-1-1-1-1-1-1-1-1-1-|



---------------------------------|---------------------------------|
---------------------------------|---------------------------------|
---------------------------------|---------------------------------|
---------------------------------|---------------------------------|
--8------------------------------|--3------------------------------|
--8--8-8-8-8-8-8-8-8-8-8-8-8-8-8-|--3--3-3-3-3-3-3-3-3-3-3-3-3-3-3-|



-------------------------------|---------------------------------|
-------------------------------|---------------------------------|
-------------------------------|---------------------------------|
-------------------------------|---------------------------------|
--2--------------3------5------|--7------------------------------|
--2--2-2-2-2-2-2-3--3-3-5--5-5-|--7--7-7-7-7-7-7-7-7-7-7-7-7-7-7-|



---------------------------------|---------------------------------|
---------------------------------|---------------------------------|
---------------------------------|---------------------------------|
---------------------------------|---------------------------------|
--8------------------------------|--3------------------------------|
--8--8-8-8-8-8-8-8-8-8-8-8-8-8-8-|--3--3-3-3-3-3-3-3-3-3-3-3-3-3-3-|



---------------------------------|--------------------------------|
---------------------------------|--------------------------------|
---------------------------------|--------------------------------|
---------------------------------|--3--------------4--------------|
--2------------------------------|--1--1-1-1-1-1-1-2--2-2-2-2-2-2-|
--2--2-2-2-2-2-2-2-2-2-2-2-2-2-2-|--------------------------------|



--------------------------------|--------------------------|
--------------------------------|--------------------------|
--------------------------------|--------------------------|
--5--------------6--------------|--------------------------|
--3--3-3-3-3-3-3-4--4-4-4-4-4-4-|--0--0--------0--0--------|
--------------------------------|--0--0--------0--0--------|


 
--------------------------|--------------------------|
--------------------------|--------------------------|
--------------------------|--------------------------|
--------------------------|--------------------------|
--0--0--------0--0--------|--0--0--------0--0--------|
--0--0--------0--0--------|--0--0--------0--0--------|

        
--------------------------|--------------------|--------------------|
--------------------------|--------------------|--------------------|
--------------------------|--------------------|--------------------|
--------------------------|--------------------|--------------------|
--0--0--------------------|--0--------8--------|--3--------2--------|
--0--0--------------------|--0--------8--------|--3--------2--------|


            
--------------------|--------------------|-------------------|
--------------------|--------------------|-------------------|
--------------------|--------------------|-------------------|
--------------------|--------------------|--3----------------|
--0--------8--------|--3--------2--------|--1----------------|
--0--------8--------|--3--------2--------|--1----------------|


       
-------------------|-------------------|--------------------|
-------------------|-------------------|--------------------|
-------------------|-------------------|--------------------|
-------------------|-------------------|--------------------|
--5----------------|--0----------------|--5--------7--------|
--5----------------|--0----------------|--5--------7--------|

 
----------------------------------|----------------------------------|
----------------------------------|----------------------------------|
----------------------------------|----------------------------------|
----------------------------------|----------------------------------|
--0-0-0-0-0-0-0-0-0-0-0-0-0-0-0-0-|--0-0-0-0-0-0-0-0-0-0-0-0-0-0-0-0-|
--0-0-0-0-0-0-0-0-0-0-0-0-0-0-0-0-|--0-0-0-0-0-0-0-0-0-0-0-0-0-0-0-0-|



----------------------------------|----------------------------------|
----------------------------------|----------------------------------|
----------------------------------|----------------------------------|
----------------------------------|----------------------------------|
--0-0-0-0-0-0-0-0-0-0-0-0-0-0-0-0-|--0-0-0-0-0-0-0-0-0-0-0-0-0-0-0-0-|
--0-0-0-0-0-0-0-0-0-0-0-0-0-0-0-0-|--0-0-0-0-0-0-0-0-0-0-0-0-0-0-0-0-|


 
----------------------------------|----------------------------------|
----------------------------------|----------------------------------|
--7-7-7-7-7-7-7-7-5-5-5-5-5-5-5-5-|--3-3-3-3-3-3-3-3-----------------|
----------------------------------|------------------5-5-5-5-5-5-5-5-|
--5-5-5-5-5-5-5-5-3-3-3-3-3-3-3-3-|--1-1-1-1-1-1-1-1-----------------|
----------------------------------|------------------5-5-5-5-5-5-5-5-|



----------------------------------|
----------------------------------|
--7-7-7-7-7-7-7-7-9-9-9-9-9-9-9-9-|
----------------------------------|
--5-5-5-5-5-5-5-5-7-7-7-7-7-7-7-7-|
----------------------------------|


                
--------------------------------------------------|-------------------||
--------------------------------------------------|-------------------||
--10-10-10-10-10-10-10-10-12-12-12-12-12-12-12-12-|-------------------||
--------------------------------------------------|-------------------||
---8--8--8--8--8--8--8--8-10-10-10-10-10-10-10-10-|-------------------||
--------------------------------------------------|-------------------||


[Lead Guitar]

D||-------------------|-------------------|--------------------------|
A||-------------------|-------------------|--------------------------|
F||-------------------|-------------------|--------------------------|
C||-------------------|-------------------|--------------------------|
G||-------------------|-------------------|--------------------------|
C||-------------------|-------------------|--------------------------|

 
--------------------------|---------------------------------|
--------------------------|--11--10-------------------------|
--------------------------|----------12--10--9--10--12------|
--------------------------|-----------------------------11--|
--------------------------|---------------------------------|
--------------------------|---------------------------------|



-------------------------------|---------------------------------|
-------------------------------|--11--10-------------------------|
------9--10--9--------------9--|----------12--10--9--10--12------|
--12------------12--11--12-----|-----------------------------11--|
-------------------------------|---------------------------------|
-------------------------------|---------------------------------|


 
-------------------------------|---------------------------------|
-------------------------------|--11--10-------------------------|
------9--10--9--------------9--|----------12--10--9--10--12------|
--12------------12--11--12-----|-----------------------------11--|
-------------------------------|---------------------------------|
-------------------------------|---------------------------------|


              
-------------------------------|-------------------|-------------------|
-------------------------------|-------------------|-------------------|
------9--10--9--------------9--|-------------------|-------------------|
--12------------12--11--12-----|-------------------|-------------------|
-------------------------------|-------------------|-------------------|
-------------------------------|-------------------|-------------------|



 
-------------------|-------------------|---------------------------------|
-------------------|-------------------|---------------------------------|
-------------------|-------------------|--10-12-10--------9-10-9--7-9-7--|
-------------------|-------------------|---------------------------------|
-------------------|-------------------|---------------------------------|
-------------------|-------------------|---------------------------------|


  
------------------------------|---------------------------------|
------------------------------|---------------------------------|
--10-12-10--------------------|--10-12-10--------9-10-9--7-9-7--|
------------------------------|---------------------------------|
------------------------------|---------------------------------|
------------------------------|---------------------------------|



------------------------------|--------------------------|
------------------------------|------3--5--6-----3--5--6-|
--10-12-10--------------------|--3-----------4-----------|
------------------------------|--------------------------|
------------------------------|--------------------------|
------------------------------|--------------------------|



------------------------|---------------------------|
------5--6--8-----------|--------------------8--10--|
--5-----------6---------|-----7--10--9----7---------|
------------------------|---------------------------|
------------------------|---------------------------|
------------------------|---------------------------|



-----------------------------|----------------------------|
---L-----11--10-------8--10--|---L-----------------8--10--|
------7------------7---------|------7--10--9----7---------|
-----------------------------|----------------------------|
-----------------------------|----------------------------|
-----------------------------|----------------------------|


   E  E   E   Q    E  E   E      E  E   E  Q    E   E  E   
-----------------------------|----------------------------|
---L-----11--10-------8--10--|---L-----10--8-------10--8--|
------7------------7---------|------7-----------7---------|
-----------------------------|----------------------------|
-----------------------------|----------------------------|
-----------------------------|----------------------------|



----------------------------|----------13--12---------13--12--|
--L-----10--8-------11--10--|---L--15-------------15----------|
-----7-----------7----------|---------------------------------|
----------------------------|---------------------------------|
----------------------------|---------------------------------|
----------------------------|---------------------------------|


             
---------12-13-12--------------|---------------------|-------------------|
-----15------------13----10----|--15-----------------|-------------------|
-------------------------------|---------------------|-------------------|
-------------------------------|---------------------|-------------------|
-------------------------------|---------------------|-------------------|
-------------------------------|---------------------|-------------------|



  
---------------------------------|------------------------------|
---------------------------------|------------------------------|
--10-12-10--------9-10-9--7-9-7--|--10-12-10--------------------|
---------------------------------|------------------------------|
---------------------------------|------------------------------|
---------------------------------|------------------------------|


 
---------------------------------|------------------------------|
---------------------------------|------------------------------|
--10-12-10--------9-10-9--7-9-7--|--10-12-10--------------------|
---------------------------------|------------------------------|
---------------------------------|------------------------------|
---------------------------------|------------------------------|

 
--------------------------|------------------------|---------------------------|
------3--5--6-----3--5--6-|------5--6--8-----------|--------------------8--10--|
--3-----------4-----------|--5-----------6---------|-----7--10--9----7---------|
--------------------------|------------------------|---------------------------|
--------------------------|------------------------|---------------------------|
--------------------------|------------------------|---------------------------|

 
-----------------------------|----------------------------|
---L-----11--10-------8--10--|---L-----------------8--10--|
------7------------7---------|------7--10--9----7---------|
-----------------------------|----------------------------|
-----------------------------|----------------------------|
-----------------------------|----------------------------|


-----------------------------|----------------------------|
---L-----11--10-------8--10--|---L-----10--8-------10--8--|
------7------------7---------|------7-----------7---------|
-----------------------------|----------------------------|
-----------------------------|----------------------------|
-----------------------------|----------------------------|


----------------------------|----------13--12---------13--12--|
--L-----10--8-------11--10--|---L--15-------------15----------|
-----7-----------7----------|---------------------------------|
----------------------------|---------------------------------|
----------------------------|---------------------------------|
----------------------------|---------------------------------|

  
---------12-13-12--------------|---------------------------------|
-----15------------13----10----|--11--10-------------------------|
-------------------------------|----------12--10--9--10--12------|
-------------------------------|-----------------------------11--|
-------------------------------|---------------------------------|
-------------------------------|---------------------------------|


-------------------------------|---------------------------------|
-------------------------------|--11--10-------------------------|
------9--10--9--------------9--|----------12--10--9--10--12------|
--12------------12--11--12-----|-----------------------------11--|
-------------------------------|---------------------------------|
-------------------------------|---------------------------------|


 
-------------------------------|---------------------------------|
-------------------------------|--11--10-------------------------|
------9--10--9--------------9--|----------12--10--9--10--12------|
--12------------12--11--12-----|-----------------------------11--|
-------------------------------|---------------------------------|
-------------------------------|---------------------------------|

                
-------------------------------|-------------------|-------------------|
-------------------------------|-------------------|-------------------|
------9--10--9--------------9--|-------------------|-------------------|
--12------------12--11--12-----|-------------------|-------------------|
-------------------------------|-------------------|-------------------|
-------------------------------|-------------------|-------------------|



---------------------------------|------------------------------|
--13----------13--12---------12--|--10--------10--9--10--12--9--|
------10--12----------9--10------|------7--9--------------------|
---------------------------------|------------------------------|
---------------------------------|------------------------------|
---------------------------------|------------------------------|


-------------------|-------------------|---------------------------------|
-------------------|-------------------|--13----------13--12---------12--|
-------------------|-------------------|------10--12----------9--10------|
-------------------|-------------------|---------------------------------|
-------------------|-------------------|---------------------------------|
-------------------|-------------------|---------------------------------|



------------------------------|---------------------------------|
--10--------10--9--10--12--9--|--13----------13--12---------12--|
------7--9--------------------|------10--12----------9--10------|
------------------------------|---------------------------------|
------------------------------|---------------------------------|
------------------------------|---------------------------------|


             
-------------------------------|-------------------|-------------------|
--10--------10--9--10--12--15--|-------------------|-------------------|
------7--9---------------------|-------------------|-------------------|
-------------------------------|-------------------|-------------------|
-------------------------------|-------------------|-------------------|
-------------------------------|-------------------|-------------------|



-------------------|-------------------|--------------------------|
-------------------|-------------------|------3--5--6-----3--5--6-|
-------------------|-------------------|--3-----------4-----------|
-------------------|-------------------|--------------------------|
-------------------|-------------------|--------------------------|
-------------------|-------------------|--------------------------|

    
------------------------|-------------------|-------------------|
------5--6--8-----------|-------------------|-------------------|
--5-----------6---------|-------------------|-------------------|
------------------------|-------------------|-------------------|
------------------------|-------------------|-------------------|
------------------------|-------------------|-------------------|


----------------------------|-----------------------------|
---------------------8--10--|--------11--10--------8--10--|
-----7--10--9-----7---------|-----7-------------7---------|
----------------------------|-----------------------------|
----------------------------|-----------------------------|
----------------------------|-----------------------------|


---------------------------|-----------------------------|
--------------------8--10--|---L-----11--10-------8--10--|
-----7--10--9----7---------|------7------------7---------|
---------------------------|-----------------------------|
---------------------------|-----------------------------|
---------------------------|-----------------------------|


----------------------------|-----------------------------|
---L-----------------8--10--|---L-----11--10-------8--10--|
------7--10--9----7---------|------7------------7---------|
----------------------------|-----------------------------|
----------------------------|-----------------------------|
----------------------------|-----------------------------|


----------------------------|----------------------------|
---L-----10--8-------10--8--|--L-----10--8-------11--10--|
------7-----------7---------|-----7-----------7----------|
----------------------------|----------------------------|
----------------------------|----------------------------|
----------------------------|----------------------------|

----------13--12---------13--12--|---------12-13-12--------------|
---L--15-------------15----------|-----15------------13----10----|
---------------------------------|-------------------------------|
---------------------------------|-------------------------------|
---------------------------------|-------------------------------|
---------------------------------|-------------------------------|


---------------------------------|-------------------------------|
--11--10-------------------------|-------------------------------|
----------12--10--9--10--12------|------9--10--9--------------9--|
-----------------------------11--|--12------------12--11--12-----|
---------------------------------|-------------------------------|
---------------------------------|-------------------------------|


---------------------------------|-------------------------------|
--11--10-------------------------|-------------------------------|
----------12--10--9--10--12------|------9--10--9--------------9--|
-----------------------------11--|--12------------12--11--12-----|
---------------------------------|-------------------------------|
---------------------------------|-------------------------------|

  
---------------------------------|-------------------------------|
--11--10-------------------------|-------------------------------|
----------12--10--9--10--12------|------9--10--9--------------9--|
-----------------------------11--|--12------------12--11--12-----|
---------------------------------|-------------------------------|
---------------------------------|-------------------------------|

 
---------------------------------|-------------------------------|
--11--10-------------------------|-------------------------------|
----------12--10--9--10--12------|------9--10--9--------------9--|
-----------------------------11--|--12------------12--11--12-----|
---------------------------------|-------------------------------|
---------------------------------|-------------------------------|


Тональность:

Это должно быть в ТОП-листе! - Топ-лист композиций



Назад
Рекомендуем посмотреть другие песни исполнителя «Arch Enemy»:

  • Комменты Fb ()
  • Комменты ВК



Добавить в Избранное Браузера
Сохранить здесь Очистить


x

0


+
-

+
-

-

Авторизация





Зарегистрироваться

M

Дата и время

  • 05:28:54
     

Социальные ссылки


Наши приложения

  • Muzbank App Play Market
  • Muzbank Amazon App