MUZBANK



A MOST COMPLETE BANK OF MUSIC INFORMATION

МУЗЫКАЛЬНО-ИНФОРМАЦИОННЫЙ БАНК







    AArch Enemy • Burning Angel (аккорды и текст - chords & lyrics)


    24

    Print

    Видео «Burning Angel (Arch Enemy)»

    Видео клипы к песне подбираются автоматически сайтом youtube. Возможны некоторые несоответствия клипов песне.

    ↑ Спрятать рекламу ↑





    Dark shadows from above
    Ravens fly, obliterate the sun
    "It′s a sign of the devil.
    He will come for his servant tonight"
    These are dark times
    Suspicious minds breed like rats
    Guardians of corrupt morality
    Spread their filthy lies
    
    Am I to burn
    I have not sinned!
    Burnt at the stake.
    Innocent blood that can never be washed clean
    
    The flames of ignorance
    Grow higher and higher
    Licking my flesh - burning my soul
    The raven laughing in the moon
    
    These are dark times
    Suspicious minds breed like rats.
    Guardians of corrupt morality
    Spread their filthy lies again...
    
    [1st Lead - Michael]
    [2nd Lead - Christopher]
    
    
    
    Gtr I (C F Bb Eb G C) - '[1] Distrotion (Rhythm Guitar 1)'
    Gtr II (C F Bb Eb G C) - '[2] Distortion (Rhythm Guitar 2)'
    Gtr III (C F Bb Eb G C) - '[3] Overdriven (Lead Guitar 1)'
    Gtr IV (C F Bb Eb G C) - '[4] Overdriven (Lead Guitar 2)'
    
     Intro (Q=155)
    
      E5
     4/4
      Gtrs I, II
      E E E E E E E E   E E E E E E E E
    |-----------------|-----------------|
    |-----------------|-----------------|
    |-----------------|-----------------|
    |-9-9-9-9-9-9-9-9-|-9-9-9-9-9-9-9-9-|
    |-7-7-7-7-7-7-7-7-|-7-7-7-7-7-7-7-7-|
    |-----------------|-----------------|
    
    
      C/E
       E  E  E  E  E  E  E  E    E  E  E  E  E  E  E  E
    |-------------------------|--------------------------|
    |-------------------------|--------------------------|
    |-------------------------|--------------------------|
    |-10-10-10-10-10-10-10-10-|-10-10-10-10-10-10-10-10--|
    |--7--7--7--7--7--7--7--7-|--7--7--7--7--7--7--7--7--|
    |-------------------------|--------------------------|
    
    
      F5
       E  E  E  E  E  E  E  E    E  E  E  E  E  E  E  E
    |-------------------------|-------------------------|
    |-------------------------|-------------------------|
    |-------------------------|-------------------------|
    |-10-10-10-10-10-10-10-10-|-10-10-10-10-10-10-10-10-|
    |--8--8--8--8--8--8--8--8-|--8--8--8--8--8--8--8--8-|
    |-------------------------|-------------------------|
    
    
      E5                B/Eb
      E E E E E E E E   E E E E E E E E
    |-----------------|-----------------||
    |-----------------|-----------------||
    |-----------------|-----------------||
    |-9-9-9-9-9-9-9-9-|-9-9-9-9-9-9-9-9-||
    |-7-7-7-7-7-7-7-7-|-6-6-6-6-6-6-6-6-||
    |-----------------|-----------------||
    
    
      E5
      Gtr III
       H       E E E E   +E  Q   Q   Q   a  E
    |------------------|----------------------|
    |------------------|----------------------|
    |------------------|----------------------|
    |------------------|----------------------|
    |-/7-------7-7-7-9-|-(9)-7---9---7---7s10-|
    |------------------|----------------------|
    |
    | Gtrs I, II
    |  E E E E E E E E    E  E E E E E E    E
    |------------------|----------------------|
    |------------------|----------------------|
    |------------------|----------------------|
    |--9-9-9-9-9-9-9-9-|--9--9-9-9-9-9-9----9-|
    |--7-7-7-7-7-7-7-7-|--7--7-7-7-7-7-7----7-|
    |------------------|----------------------|
    
    
      C/E
        ~~~~
       +H            E  E  E  E   +E   Q     Q     Q     E
    |---------------------------|---------------------------|
    |---------------------------|---------------------------|
    |---------------------------|---------------------------|
    |---------------------------|---------------------------|
    |-(10)-----------7--7--7--9-|-(9)--7-----9----10-----8--|
    |---------------------------|---------------------------|
    |
    |   E   E  E  E  E  E  E  E    E   E  E  E  E  E  E  E
    |---------------------------|---------------------------|
    |---------------------------|---------------------------|
    |---------------------------|---------------------------|
    |--10--10-10-10-10-10-10-10-|-10--10-10-10-10-10-10-10--|
    |---7---7--7--7--7--7--7--7-|--7---7--7--7--7--7--7--7--|
    |---------------------------|---------------------------|
    
    
      F5
       ~~~
      +H            E  E  E  E   +E   Q    a  Q     Q     E
    |--------------------------|----------------------------|
    |--------------------------|----------------------------|
    |--------------------------|----------------------------|
    |--------------------------|----------------------------|
    |-(8)-----------8--8--8--8-|-(8)--8----8s10-----8-----7-|
    |--------------------------|----------------------------|
    |
    |  E   E  E  E  E  E  E  E    E   E  E    E  E  E  E  E
    |--------------------------|----------------------------|
    |--------------------------|----------------------------|
    |--------------------------|----------------------------|
    |-10--10-10-10-10-10-10-10-|-10--10-10---10-10-10-10-10-|
    |--8---8--8--8--8--8--8--8-|--8---8--8----8--8--8--8--8-|
    |--------------------------|----------------------------|
    
    
      E5                    B/Eb
       ~~~                   ~~~
      +H        +E  E E E   +W
    |---------------------|--------------------||
    |---------------------|--------------------||
    |---------------------|--------------------||
    |---------------------|--------------------||
    |-(7)-------(7)-9-7-6-|-(6)----------------||
    |---------------------|--------------------||
    |
    |  E  E E E  E  E E E    E  E E E E E E E
    |---------------------|--------------------||
    |---------------------|--------------------||
    |---------------------|--------------------||
    |--9--9-9-9--9--9-9-9-|--9--9-9-9-9-9-9-9--||
    |--7--7-7-7--7--7-7-7-|--6--6-6-6-6-6-6-6--||
    |---------------------|--------------------||
    
    
      E5
       H       E E E  E    +E  Q    Q   Q   a  E
    |-------------------|------------------------|
    |-------------------|------------------------|
    |-/9-------9-9-9-11-|-(11)-9---11---9---9s12-|
    |-------------------|------------------------|
    |-------------------|------------------------|
    |-------------------|------------------------|
    |
    |  E E E E E E E  E     E  E E  E E E E    E
    |-------------------|------------------------|
    |-------------------|------------------------|
    |-------------------|------------------------|
    |--9-9-9-9-9-9-9--9-|---9--9-9--9-9-9-9----9-|
    |--7-7-7-7-7-7-7--7-|---7--7-7--7-7-7-7----7-|
    |-------------------|------------------------|
    
    
      C/E
        ~~~~
       +H            E  E  E  E    +E   Q     Q     Q     E
    |---------------------------|----------------------------|
    |---------------------------|----------------------------|
    |-(12)-----------9--9--9-11-|-(11)--9----11----12----10--|
    |---------------------------|----------------------------|
    |---------------------------|----------------------------|
    |---------------------------|----------------------------|
    |
    |   E   E  E  E  E  E  E  E     E   E  E  E  E  E  E  E
    |---------------------------|----------------------------|
    |---------------------------|----------------------------|
    |---------------------------|----------------------------|
    |--10--10-10-10-10-10-10-10-|--10--10-10-10-10-10-10-10--|
    |---7---7--7--7--7--7--7--7-|---7---7--7--7--7--7--7--7--|
    |---------------------------|----------------------------|
    
    
      F5
        ~~~~
       +H            E  E  E  E    +E   Q     a  Q     Q     E
    |---------------------------|------------------------------|
    |---------------------------|------------------------------|
    |-(10)----------10-10-10-10-|-(10)-10----10s12----10-----9-|
    |---------------------------|------------------------------|
    |---------------------------|------------------------------|
    |---------------------------|------------------------------|
    |
    |   E   E  E  E  E  E  E  E     E   E  E     E  E  E  E  E
    |---------------------------|------------------------------|
    |---------------------------|------------------------------|
    |---------------------------|------------------------------|
    |--10--10-10-10-10-10-10-10-|--10--10-10----10-10-10-10-10-|
    |---8---8--8--8--8--8--8--8-|---8---8--8-----8--8--8--8--8-|
    |---------------------------|------------------------------|
    
    
      E5                     B/Eb
       ~~~                    ~~~
      +H        +E   E E E   +W
    |----------------------|--------------------||
    |----------------------|--------------------||
    |-(9)-------(9)-11-9-8-|-(8)----------------||
    |----------------------|--------------------||
    |----------------------|--------------------||
    |----------------------|--------------------||
    |
    |  E  E E E  E   E E E    E  E E E E E E E
    |----------------------|--------------------||
    |----------------------|--------------------||
    |----------------------|--------------------||
    |--9--9-9-9--9---9-9-9-|--9--9-9-9-9-9-9-9--||
    |--7--7-7-7--7---7-7-7-|--6--6-6-6-6-6-6-6--||
    |----------------------|--------------------||
    
    
      E5
       H       E E E  E    +E  Q    Q   Q   a  E
    |-------------------|------------------------|
    |-------------------|------------------------|
    |-/9-------9-9-9-11-|-(11)-9---11---9---9s12-|
    |-------------------|------------------------|
    |-------------------|------------------------|
    |-------------------|------------------------|
    |
    | Gtr IV
    |  H       E E E  E    +E  Q    Q   Q   a  E
    |-------------------|------------------------|
    |-/8-------8-8-8-10-|-(10)-8---10---8---8s12-|
    |-------------------|------------------------|
    |-------------------|------------------------|
    |-------------------|------------------------|
    |-------------------|------------------------|
    |
    | Gtrs I, II
    |  E E E E E E E  E     E  E E  E E E E    E
    |-------------------|------------------------|
    |-------------------|------------------------|
    |-------------------|------------------------|
    |--9-9-9-9-9-9-9--9-|---9--9-9--9-9-9-9----9-|
    |--7-7-7-7-7-7-7--7-|---7--7-7--7-7-7-7----7-|
    |-------------------|------------------------|
    
    
      C/E
        ~~~~
       +H            E  E  E  E    +E   Q     Q     Q     E
    |---------------------------|----------------------------|
    |---------------------------|----------------------------|
    |-(12)-----------9--9--9-11-|-(11)--9----11----12----10--|
    |---------------------------|----------------------------|
    |---------------------------|----------------------------|
    |---------------------------|----------------------------|
    |
    |   ~~~~
    |  +H            E  E  E  E    +E   Q     Q     Q     E
    |---------------------------|-------------------7--------|
    |-(12)-----------8--8--8-10-|-(10)--8----10----------10--|
    |---------------------------|----------------------------|
    |---------------------------|----------------------------|
    |---------------------------|----------------------------|
    |---------------------------|----------------------------|
    |
    |   E   E  E  E  E  E  E  E     E   E  E  E  E  E  E  E
    |---------------------------|----------------------------|
    |---------------------------|----------------------------|
    |---------------------------|----------------------------|
    |--10--10-10-10-10-10-10-10-|--10--10-10-10-10-10-10-10--|
    |---7---7--7--7--7--7--7--7-|---7---7--7--7--7--7--7--7--|
    |---------------------------|----------------------------|
    
    
      F5
        ~~~~
       +H            E  E  E  E    +E   Q     a  Q     Q     E
    |---------------------------|------------------------------|
    |---------------------------|------------------------------|
    |-(10)----------10-10-10-10-|-(10)-10----10s12----10-----9-|
    |---------------------------|------------------------------|
    |---------------------------|------------------------------|
    |---------------------------|------------------------------|
    |
    |   ~~~~
    |  +H            E  E  E  E    +E   Q     a  Q     Q     E
    |---------------------------|------------------------------|
    |-(10)----------10-10-10-10-|-(10)-10----10s12----10-----8-|
    |---------------------------|------------------------------|
    |---------------------------|------------------------------|
    |---------------------------|------------------------------|
    |---------------------------|------------------------------|
    |
    |   E   E  E  E  E  E  E  E     E   E  E     E  E  E  E  E
    |---------------------------|------------------------------|
    |---------------------------|------------------------------|
    |---------------------------|------------------------------|
    |--10--10-10-10-10-10-10-10-|--10--10-10----10-10-10-10-10-|
    |---8---8--8--8--8--8--8--8-|---8---8--8-----8--8--8--8--8-|
    |---------------------------|------------------------------|
    
    
      E5                     B/Eb
       ~~~                    ~~~
      +H        +E   E E E   +W
    |----------------------|--------------------||
    |----------------------|--------------------||
    |-(9)-------(9)-12-9-8-|-(8)----------------||
    |----------------------|--------------------||
    |----------------------|--------------------||
    |----------------------|--------------------||
    |
    |  ~~~                    ~~~
    | +H        +E   E E E   +W
    |----------------7-----|--------------------||
    |-(8)-------(8)----8-7-|-(7)----------------||
    |----------------------|--------------------||
    |----------------------|--------------------||
    |----------------------|--------------------||
    |----------------------|--------------------||
    |
    |  E  E E E  E   E E E    E  E E E E E E E
    |----------------------|--------------------||
    |----------------------|--------------------||
    |----------------------|--------------------||
    |--9--9-9-9--9---9-9-9-|--9--9-9-9-9-9-9-9--||
    |--7--7-7-7--7---7-7-7-|--6--6-6-6-6-6-6-6--||
    |----------------------|--------------------||
    
    
       1st Verse
        A5                    F/A
        Gtrs I, II
          PM|   PM|   PM----|     PM|   PM|   PM------------|
        E S S E S S E S S S S E   S S E S S E S S S S S S S S
    ||--------------------------|-----------------------------|
    ||o-------------------------|-----------------------------|
    ||--------------------------|-----------------------------|
    ||--2-----2-----2---------3-|-----3-----3-----------------|
    ||o-0-0-0-0-0-0-0-0-0-0-0-0-|-0-0-0-0-0-0-0-0-0-0-0-0-0-0-|
    ||--------------------------|-----------------------------|
    
    
      F#m/A                 G/D       D
        PM|   PM|   PM----|
      E S S E S S E S S S S E   +Q.   H    +E   3x
    |-----------------------3-|-(3)---2----(2)--||
    |-----------------------0-|-(0)---3----(3)-o||
    |-----------------------0-|-(0)---2----(2)--||
    |-4-----4-----4---------0-|-(0)---0----(0)--||
    |-0-0-0-0-0-0-0-0-0-0-0---|----------------o||
    |-------------------------|-----------------||
    
    
      A5                    F/A
        PM|   PM|   PM----|     PM|   PM|   PM------------|
      E S S E S S E S S S S E   S S E S S E S S S S S S S S
    |-------------------------|------------------------------|
    |-------------------------|------------------------------|
    |-------------------------|------------------------------|
    |-2-----2-----2---------3-|-----3-----3------------------|
    |-0-0-0-0-0-0-0-0-0-0-0-0-|-0-0-0-0-0-0-0-0-0-0-0-0-0-0--|
    |-------------------------|------------------------------|
    
    
      F#m/A                 G/D       N.C.
      Gtr I
        PM|   PM|   PM----|
                                          |-3-|
      E S S E S S E S S S S E   +Q.   E E S S S E E
    |-----------------------3-|-(3)---5-7-5h7p5-----||
    |-----------------------0-|-(0)-------------8-7-||
    |-----------------------0-|-(0)-----------------||
    |-4-----4-----4---------0-|-(0)-----------------||
    |-0-0-0-0-0-0-0-0-0-0-0---|---------------------||
    |-------------------------|---------------------||
    |
    | Gtr II
    |   PM|   PM|   PM----|
    |                                     |-3-|
    | E S S E S S E S S S S E   +Q.   E E S S S E E
    |-----------------------3-|-(3)---2-3-2h3p2p0---||
    |-----------------------0-|-(0)---------------3-||
    |-----------------------0-|-(0)-----------------||
    |-4-----4-----4---------0-|-(0)-----------------||
    |-0-0-0-0-0-0-0-0-0-0-0---|---------------------||
    |-------------------------|---------------------||
    
    
     Pre-Chorus
      N.C.
        PM----------------------------|
                                            |-3-|
      E S S E S S E S S E S S   E S S E E E S S S E E
    |-3-----------------------|---------5-7-5h7p5-----|
    |-------------------------|-------------------8-7-|
    |-------------------------|-----------------------|
    |-------------------------|-----------------------|
    |-------------------------|-----------------------|
    |---0-0-0-0-0-0-0-0-0-0-0-|-0-0-0-0---------------|
    |
    |   PM----------------------------|
    |                                       |-3-|
    | E S S E S S E S S E S S   E S S E E E S S S E E
    |-0-----------------------|---------2-3-2h3p2p0---|
    |-------------------------|---------------------3-|
    |-------------------------|-----------------------|
    |-------------------------|-----------------------|
    |-------------------------|-----------------------|
    |---0-0-0-0-0-0-0-0-0-0-0-|-0-0-0-0---------------|
    
    
      C5        D5        N.C.
                              |-3-|
      H..       E   +Q.   E E S S S E E
    |-------------|-------5-7-5h7p5-----|
    |-------------|-----------------8-7-|
    |-5---------7-|-(7)-----------------|
    |-5---------7-|-(7)-----------------|
    |-3---------5-|-(5)-----------------|
    |-------------|---------------------|
    |
    |                         |-3-|
    | H..       E   +Q.   E E S S S E E
    |-------------|-------2-3-2h3p2p0---|
    |-------------|-------------------3-|
    |-5---------7-|-(7)-----------------|
    |-5---------7-|-(7)-----------------|
    |-3---------5-|-(5)-----------------|
    |-------------|---------------------|
    
    
      N.C.
        PM----------------------------|
                                            |-3-|
      E S S E S S E S S E S S   E S S E E E S S S E E
    |-3-----------------------|---------5-7-5h7p5-----|
    |-------------------------|-------------------8-7-|
    |-------------------------|-----------------------|
    |-------------------------|-----------------------|
    |-------------------------|-----------------------|
    |---0-0-0-0-0-0-0-0-0-0-0-|-0-0-0-0---------------|
    |
    |   PM----------------------------|
    |                                       |-3-|
    | E S S E S S E S S E S S   E S S E E E S S S E E
    |-0-----------------------|---------2-3-2h3p2p0---|
    |-------------------------|---------------------3-|
    |-------------------------|-----------------------|
    |-------------------------|-----------------------|
    |-------------------------|-----------------------|
    |---0-0-0-0-0-0-0-0-0-0-0-|-0-0-0-0---------------|
    
    
      C5        D5         N.C.
      H..       E   +H      H
    |-------------|---------------||
    |-------------|---------------||
    |-5---------7-|-(7)-----------||
    |-5---------7-|-(7)-----------||
    |-3---------5-|-(5)-----------||
    |-------------|--------12\----||
    |
    | H..       E   +H      H
    |-------------|---------------||
    |-------------|---------------||
    |-5---------7-|-(7)-----------||
    |-5---------7-|-(7)-----------||
    |-3---------5-|-(5)-----------||
    |-------------|--------12\----||
    
    
     Main Theme
      E5
      Gtr III
       H       E E E E   +E  Q   Q   Q    E
    |------------------|--------------------|
    |------------------|--------------------|
    |------------------|--------------------|
    |------------------|--------------------|
    |-/7-------7-7-7-9-|-(9)-7---9---7---10-|
    |------------------|--------------------|
    |
    | Gtrs I, II
    |  E E E E E E E E    E  E E E E E E  E
    |------------------|--------------------|
    |------------------|--------------------|
    |------------------|--------------------|
    |--9-9-9-9-9-9-9-9-|--9--9-9-9-9-9-9--9-|
    |--7-7-7-7-7-7-7-7-|--7--7-7-7-7-7-7--7-|
    |------------------|--------------------|
    
    
      C/E
        ~~~~
       +H            E  E  E  E   +E   Q     Q     Q     E
    |---------------------------|--------------------------|
    |---------------------------|--------------------------|
    |---------------------------|--------------------------|
    |---------------------------|--------------------------|
    |-(10)-----------7--7--7--9-|-(9)--7-----9----10-----8-|
    |---------------------------|--------------------------|
    |
    |   E   E  E  E  E  E  E  E    E   E  E  E  E  E  E  E
    |---------------------------|--------------------------|
    |---------------------------|--------------------------|
    |---------------------------|--------------------------|
    |--10--10-10-10-10-10-10-10-|-10--10-10-10-10-10-10-10-|
    |---7---7--7--7--7--7--7--7-|--7---7--7--7--7--7--7--7-|
    |---------------------------|--------------------------|
    
    
      F5
       ~~~
      +H            E  E  E  E   +E   Q    a  Q     Q     E
    |--------------------------|----------------------------|
    |--------------------------|----------------------------|
    |--------------------------|----------------------------|
    |--------------------------|----------------------------|
    |-(8)-----------8--8--8--8-|-(8)--8----8s10-----8-----7-|
    |--------------------------|----------------------------|
    |
    |  E   E  E  E  E  E  E  E    E   E  E    E  E  E  E  E
    |--------------------------|----------------------------|
    |--------------------------|----------------------------|
    |--------------------------|----------------------------|
    |-10--10-10-10-10-10-10-10-|-10--10-10---10-10-10-10-10-|
    |--8---8--8--8--8--8--8--8-|--8---8--8----8--8--8--8--8-|
    |--------------------------|----------------------------|
    
    
      E5                    B/Eb
       ~~~                   ~~~
      +H        +E  E E E   +W
    |---------------------|--------------------||
    |---------------------|--------------------||
    |---------------------|--------------------||
    |---------------------|--------------------||
    |-(7)-------(7)-9-7-6-|-(6)----------------||
    |---------------------|--------------------||
    |
    |  E  E E E  E  E E E    E  E E E E E E E
    |---------------------|--------------------||
    |---------------------|--------------------||
    |---------------------|--------------------||
    |--9--9-9-9--9--9-9-9-|--9--9-9-9-9-9-9-9--||
    |--7--7-7-7--7--7-7-7-|--6--6-6-6-6-6-6-6--||
    |---------------------|--------------------||
    
    
      E5
       H       E E E E   +E  Q   Q   Q    E
    |------------------|--------------------|
    |------------------|--------------------|
    |------------------|--------------------|
    |------------------|--------------------|
    |-/7-------7-7-7-9-|-(9)-7---9---7---10-|
    |------------------|--------------------|
    |
    | Gtr IV
    |  H       E E E E   +E  Q   Q   Q    E
    |------------------|--------------------|
    |------------------|--------------------|
    |------------------|------------------4-|
    |-/5-------5-5-5-7-|-(7)-5---7---5------|
    |------------------|--------------------|
    |------------------|--------------------|
    |
    | Gtrs I, II
    |  E E E E E E E E    E  E E E E E E  E
    |------------------|--------------------|
    |------------------|--------------------|
    |------------------|--------------------|
    |--9-9-9-9-9-9-9-9-|--9--9-9-9-9-9-9--9-|
    |--7-7-7-7-7-7-7-7-|--7--7-7-7-7-7-7--7-|
    |------------------|--------------------|
    
    
      C/E
        ~~~~
       +H            E  E  E  E   +E   Q     Q     Q     E
    |---------------------------|--------------------------|
    |---------------------------|--------------------------|
    |---------------------------|--------------------------|
    |---------------------------|--------------------------|
    |-(10)-----------7--7--7--9-|-(9)--7-----9----10-----8-|
    |---------------------------|--------------------------|
    |
    |   ~~~~
    |  +H            E  E  E  E   +E   Q     Q     Q     E
    |---------------------------|--------------------------|
    |---------------------------|--------------------------|
    |--(4)----------------------|------------------4-------|
    |----------------5--5--5--7-|-(7)--5-----7-----------7-|
    |---------------------------|--------------------------|
    |---------------------------|--------------------------|
    |
    |   E   E  E  E  E  E  E  E    E   E  E  E  E  E  E  E
    |---------------------------|--------------------------|
    |---------------------------|--------------------------|
    |---------------------------|--------------------------|
    |--10--10-10-10-10-10-10-10-|-10--10-10-10-10-10-10-10-|
    |---7---7--7--7--7--7--7--7-|--7---7--7--7--7--7--7--7-|
    |---------------------------|--------------------------|
    
    
      F5
       ~~~
      +H            E  E  E  E   +E   Q    a  Q     Q     E
    |--------------------------|----------------------------|
    |--------------------------|----------------------------|
    |--------------------------|----------------------------|
    |--------------------------|----------------------------|
    |-(8)-----------8--8--8--8-|-(8)--8----8s10-----8-----7-|
    |--------------------------|----------------------------|
    |
    |  ~~~
    | +H            E  E  E  E   +E   Q    a  Q     Q     E
    |--------------------------|----------------------------|
    |--------------------------|----------------------------|
    |--------------------------|----------------------------|
    |-(7)-----------7--7--7--7-|-(7)--7----7s=9-----7-----5-|
    |--------------------------|----------------------------|
    |--------------------------|----------------------------|
    |
    |  E   E  E  E  E  E  E  E    E   E  E    E  E  E  E  E
    |--------------------------|----------------------------|
    |--------------------------|----------------------------|
    |--------------------------|----------------------------|
    |-10--10-10-10-10-10-10-10-|-10--10-10---10-10-10-10-10-|
    |--8---8--8--8--8--8--8--8-|--8---8--8----8--8--8--8--8-|
    |--------------------------|----------------------------|
    
    
      F5                     B/Eb
       ~~~                    ~~~
      +H        +E   E E E   +W
    |----------------------|--------------------||
    |----------------------|--------------------||
    |----------------------|--------------------||
    |----------------------|--------------------||
    |-(7)-------(7)-10-7-6-|-(6)----------------||
    |----------------------|--------------------||
    |
    |  ~~~                    ~~~
    | +H        +E   E E E   +W
    |----------------------|--------------------||
    |----------------------|--------------------||
    |----------------4-----|--------------------||
    |-(5)-------(5)----5-4-|-(4)----------------||
    |----------------------|--------------------||
    |----------------------|--------------------||
    |
    |  E  E E E  E   E E E    E  E E E E E E E
    |----------------------|--------------------||
    |----------------------|--------------------||
    |----------------------|--------------------||
    |--9--9-9-9--9---9-9-9-|--9--9-9-9-9-9-9-9--||
    |--7--7-7-7--7---7-7-7-|--6--6-6-6-6-6-6-6--||
    |----------------------|--------------------||
    
    
       2nd Verse
        A5                    F/A
        Gtrs I, II
          PM|   PM|   PM----|     PM|   PM|   PM------------|
        E S S E S S E S S S S E   S S E S S E S S S S S S S S
    ||--------------------------|-----------------------------|
    ||o-------------------------|-----------------------------|
    ||--------------------------|-----------------------------|
    ||--2-----2-----2---------3-|-----3-----3-----------------|
    ||o-0-0-0-0-0-0-0-0-0-0-0-0-|-0-0-0-0-0-0-0-0-0-0-0-0-0-0-|
    ||--------------------------|-----------------------------|
    
    
      F#m/A                 G/D       D
        PM|   PM|   PM----|
      E S S E S S E S S S S E   +Q.   H    +E   3x
    |-----------------------3-|-(3)---2----(2)--||
    |-----------------------0-|-(0)---3----(3)-o||
    |-----------------------0-|-(0)---2----(2)--||
    |-4-----4-----4---------0-|-(0)---0----(0)--||
    |-0-0-0-0-0-0-0-0-0-0-0---|----------------o||
    |-------------------------|-----------------||
    
    
      A5                    F/A
        PM|   PM|   PM----|     PM|   PM|   PM------------|
      E S S E S S E S S S S E   S S E S S E S S S S S S S S
    |-------------------------|------------------------------|
    |-------------------------|------------------------------|
    |-------------------------|------------------------------|
    |-2-----2-----2---------3-|-----3-----3------------------|
    |-0-0-0-0-0-0-0-0-0-0-0-0-|-0-0-0-0-0-0-0-0-0-0-0-0-0-0--|
    |-------------------------|------------------------------|
    
    
      F#m/A                 G/D       N.C.
      Gtr I
        PM|   PM|   PM----|
                                          |-3-|
      E S S E S S E S S S S E   +Q.   E E S S S E E
    |-----------------------3-|-(3)---5-7-5h7p5-----||
    |-----------------------0-|-(0)-------------8-7-||
    |-----------------------0-|-(0)-----------------||
    |-4-----4-----4---------0-|-(0)-----------------||
    |-0-0-0-0-0-0-0-0-0-0-0---|---------------------||
    |-------------------------|---------------------||
    |
    | Gtr II
    |   PM|   PM|   PM----|
    |                                     |-3-|
    | E S S E S S E S S S S E   +Q.   E E S S S E E
    |-----------------------3-|-(3)---2-3-2h3p2p0---||
    |-----------------------0-|-(0)---------------3-||
    |-----------------------0-|-(0)-----------------||
    |-4-----4-----4---------0-|-(0)-----------------||
    |-0-0-0-0-0-0-0-0-0-0-0---|---------------------||
    |-------------------------|---------------------||
    
    
     Pre-Chorus
      N.C.
        PM----------------------------|
                                            |-3-|
      E S S E S S E S S E S S   E S S E E E S S S E E
    |-3-----------------------|---------5-7-5h7p5-----|
    |-------------------------|-------------------8-7-|
    |-------------------------|-----------------------|
    |-------------------------|-----------------------|
    |-------------------------|-----------------------|
    |---0-0-0-0-0-0-0-0-0-0-0-|-0-0-0-0---------------|
    |
    |   PM----------------------------|
    |                                       |-3-|
    | E S S E S S E S S E S S   E S S E E E S S S E E
    |-0-----------------------|---------2-3-2h3p2p0---|
    |-------------------------|---------------------3-|
    |-------------------------|-----------------------|
    |-------------------------|-----------------------|
    |-------------------------|-----------------------|
    |---0-0-0-0-0-0-0-0-0-0-0-|-0-0-0-0---------------|
    
    
      C5        D5        N.C.
                              |-3-|
      H..       E   +Q.   E E S S S E E
    |-------------|-------5-7-5h7p5-----|
    |-------------|-----------------8-7-|
    |-5---------7-|-(7)-----------------|
    |-5---------7-|-(7)-----------------|
    |-3---------5-|-(5)-----------------|
    |-------------|---------------------|
    |
    |                         |-3-|
    | H..       E   +Q.   E E S S S E E
    |-------------|-------2-3-2h3p2p0---|
    |-------------|-------------------3-|
    |-5---------7-|-(7)-----------------|
    |-5---------7-|-(7)-----------------|
    |-3---------5-|-(5)-----------------|
    |-------------|---------------------|
    
    
      N.C.                                              C5        D5       N.C.
        PM----------------------------|
                                            |-3-|
      E S S E S S E S S E S S   E S S E E E S S S E E   H..       E   +Q    H.
    |-3-----------------------|---------5-7-5h7p5-----|-------------|-------------||
    |-------------------------|-------------------8-7-|-------------|-------------||
    |-------------------------|-----------------------|-5---------7-|-(7)---------||
    |-------------------------|-----------------------|-5---------7-|-(7)---------||
    |-------------------------|-----------------------|-3---------5-|-(5)---------||
    |---0-0-0-0-0-0-0-0-0-0-0-|-0-0-0-0---------------|-------------|------12\----||
    |
    |   PM----------------------------|
    |                                       |-3-|
    | E S S E S S E S S E S S   E S S E E E S S S E E   H..       E   +Q    H.
    |-0-----------------------|---------2-3-2h3p2p0---|-------------|-------------||
    |-------------------------|---------------------3-|-------------|-------------||
    |-------------------------|-----------------------|-5---------7-|-(7)---------||
    |-------------------------|-----------------------|-5---------7-|-(7)---------||
    |-------------------------|-----------------------|-3---------5-|-(5)---------||
    |---0-0-0-0-0-0-0-0-0-0-0-|-0-0-0-0---------------|-------------|------12\----||
    
    
     Pre-Solo
              Eb5   Bb5       Eb5     Bb5       N.C.
      Gtr I
      PM----|   PM|   PM----|     PM|   PM----|
      S S S S E S S E S S S S E   S S E S S S S E E E E
    |---------------------------|-----------------------|
    |---------------------------|-----------------------|
    |---------8-----3---------8-|-----3---------7s9s7s9-|
    |---------8-----3---------8-|-----3-----------------|
    |-0-0-0-0-6-0-0-1-0-0-0-0-6-|-0-0-1-0-0-0-0---------|
    |---------------------------|---------------6s8s6s8-|
    
    
              Eb5   Bb5       Eb5     Bb5       B5 C5 C#5
      PM----|   PM|   PM----|     PM|   PM----|
      S S S S E S S E S S S S E   S S E S S S S E. E. E
    |---------------------------|-----------------------||
    |---------------------------|-----------------------||
    |---------8-----3---------8-|-----3---------4--5--6-||
    |---------8-----3---------8-|-----3---------4--5--6-||
    |-0-0-0-0-6-0-0-1-0-0-0-0-6-|-0-0-1-0-0-0-0-2--3--4-||
    |---------------------------|-----------------------||
    |
    | Gtr III
    | W                           H             E. E. E
    |---------------------------|-----------------------||
    |---------------------------|-----------------------||
    |---------------------------|---------------7--8--9-||
    |---------------------------|-----------------------||
    |---------------------------|-----------------------||
    |---------------------------|-----------------------||
    
    
              Eb5   Bb5       Eb5     Bb5       N.C.
      Gtrs I, II
      PM----|   PM|   PM----|     PM|   PM----|
      S S S S E S S E S S S S E   S S E S S S S E E E E
    |---------------------------|-----------------------|
    |---------------------------|-----------------------|
    |---------8-----3---------8-|-----3---------7s9s7s9-|
    |---------8-----3---------8-|-----3-----------------|
    |-0-0-0-0-6-0-0-1-0-0-0-0-6-|-0-0-1-0-0-0-0---------|
    |---------------------------|---------------6s8s6s8-|
    
    
              Eb5   Bb5       Eb5     Bb5       B5 C5 C#5
      PM----|   PM|   PM----|     PM|   PM----|
      S S S S E S S E S S S S E   S S E S S S S E. E. E
    |---------------------------|-----------------------|
    |---------------------------|-----------------------|
    |---------8-----3---------8-|-----3---------4--5--6-|
    |---------8-----3---------8-|-----3---------4--5--6-|
    |-0-0-0-0-6-0-0-1-0-0-0-0-6-|-0-0-1-0-0-0-0-2--3--4-|
    |---------------------------|-----------------------|
    |
    | Gtr III
    | W                           H             E. E. E
    |---------------------------|-----------------------|
    |---------------------------|-----------------------|
    |---------------------------|---------------7--8--9-|
    |---------------------------|-----------------------|
    |---------------------------|-----------------------|
    |---------------------------|-----------------------|
    
    
            D5  Eb5
      Q  E.  E.  E Q     W
    |-----------------|----------------------------||
    |-----------------|----------------------------||
    |----6---7---8----|----------------------------||
    |----6---7---8----|----------------------------||
    |----4---5---6----|----------------------------||
    |-----------------|----------------------------||
    |
    | Q  E.  E.  E Q     E      +E   +H      +Q
    |-----------------|-17b19==(17)-(17)----(17)r==||
    |-----------------|----------------------------||
    |----9--10--11----|----------------------------||
    |-----------------|----------------------------||
    |-----------------|----------------------------||
    |-----------------|----------------------------||
    
    
     Guitar Solo
      E5    C5           A5        D5
      Gtrs I, II
       Q.   Q  E  Q       Q.        Q       E  Q
       |    |  |  |       |         |       |  |
       /    /  /  /       /         /       /  /
    
      Gtr III
       ~~~
                                                  |--3--|
       H.         E  E    E   E  E  E  +E   E  E  S  S  S
    |-12---------12-14-|-15--14-12-14-(14)-15-14-12h14p12-|
    |------------------|----------------------------------|
    |------------------|----------------------------------|
    |------------------|----------------------------------|
    |------------------|----------------------------------|
    |------------------|----------------------------------|
    
    
      G5        C5                 A5                D5
       Q.       Q         E  Q      Q.                Q      E Q
       |        |         |  |      |                 |      | |
       /        /         /  /      /                 /      / /
    
                                                          ~~~~
                |-3--|              |----3----|
       E   E  E S  S S  E E  E E    E     +E  E  S S  E  +H
    |-10--12-10-7h10p7----7------|--------------------------------|
    |------------------10---10-8-|-10b12r(10)p8h10p8h10-(10)------|
    |----------------------------|--------------------------------|
    |----------------------------|--------------------------------|
    |----------------------------|--------------------------------|
    |----------------------------|--------------------------------|
    
    
      E5        C5              A5       D5
      Q.         Q     E Q        Q.      Q    E  Q
      |          |     | |        |       |    |  |
      /          /     / /        /       /    /  /
    
                                                  |--3--|
      E    E  E  E  E  Q    E    +Q    E  Q    E  E  E  E
    |--------12-14-15---------|-------15-14--/14-14-15-17-|
    |----/15----------12---13-|-(13)----------------------|
    |-------------------------|---------------------------|
    |-------------------------|---------------------------|
    |-------------------------|---------------------------|
    |-------------------------|---------------------------|
    
    
      G5                  C5                 A5                D5
       Q.                  Q      E Q      E  E        E  Q    E E E
       |                   |      | |         |        |       | |
       /                   /      / /         /        /       / /
    
                               ~~~~                          ~~
       |----3-----|                           |--3--|
       E     +E   E  S  S  E  +H           E  S  S  S  E  E  H
    |-17b19r(17)p15h17p15h17-(17)------|-/19-15h17p15-----------------||
    |----------------------------------|--------------17-15-17--------||
    |----------------------------------|------------------------------||
    |----------------------------------|------------------------------||
    |----------------------------------|------------------------------||
    |----------------------------------|------------------------------||
    
    
      E5                C5
       S  S  S  S  S  S  S  S  S  S  S  S  S  S  S  S
    |-17p12----12-17p12----12-17p12----12-17p12----12-|
    |-------15----------15----------15----------15----|
    |-------------------------------------------------|
    |-------------------------------------------------|
    |-------------------------------------------------|
    |-------------------------------------------------|
    |
    | Gtrs I, II
    |        PM---|            PM---|
    |  E     E     E     E     E     E     Q
    |-------------------------------------------------|
    |-------------------------------------------------|
    |--9----------------------------------------------|
    |--9-----9-----9----10----------------10----------|
    |--7-----7-----7----10----10----10----10----------|
    |--------------------8-----8-----8-----8----------|
    
    
      A5                D5                              G5      C5            A5             D5
                                                                                          ~~~~
       S  S  S  S  S  S  S  S  S  S  S  S  S  S  S  S    Q    E  Q   Q    E    +Q        +H.
    |-15p12-------------------------------------------|---------------------|---------------------------|
    |-------15-12-15p12-------------------------------|---------------------|---------------------------|
    |-------------------14-12-14p12-------------------|---------------------|---------------------------|
    |-------------------------------14-12-14p12-------|---------------------|---------------------------|
    |-------------------------------------------14-12-|-10---12-10---9------|---------------------------|
    |-------------------------------------------------|------------------10-|-(10)b12---(10)------------|
    |
    |        PM---|            PM---|                      PM|     PM|                PM|      PM|
    |  E     E     E     E     E     E     Q             E E  E  E E E Q        E     E   E  E E E Q
    |-------------------------------------------------|---------------------|---------------------------|
    |-------------------------------------------------|---------------------|---------------------------|
    |--------------------7-----------------7----------|----------5-----5----|----------------7-----7----|
    |--7-----------------7-----7-----7-----7----------|--5-------5-5-5-5----|---7------------7-7-7-7----|
    |--7-----7-----7-----5-----5-----5-----5----------|--5-5--5--3-3-3-3----|---7-----7---7--5-5-5-5----|
    |--5-----5-----5----------------------------------|--3-3--3-------------|---5-----5---5-------------|
    
    
      E5     C5                A5       D5
       ~~~~~~~~~~~~~
                                            |--3--|
       H        +E   E  E  E    E  E  E  E  S  S  S E  E E
    |------------------------|-----------------------------|
    |------------------------|-------10--------------------|
    |-/9--------(9)--9-11-12-|-11-12----12-11h12p11s9-11---|
    |------------------------|---------------------------9s|
    |------------------------|-----------------------------|
    |------------------------|-----------------------------|
    |
    |    PM|     PM-|              PM|      PM------|
    |  E E E  E  E   E  Q       E  E  E  E  E       E  Q
    |------------------------|-----------------------------|
    |------------------------|-----------------------------|
    |--9---------------------|-----------7-------------7---|
    |--9-9-9-10--------10----|--7--------7--7-------7--7---|
    |--7-7-7-10-10--10-10----|--7--7--7--5--5-------5--5---|
    |---------8--8---8--8----|--5--5--5--------------------|
    
    
      G5    C5            A5      D5
      E E E E E E E E   E E E E E E E E
    |-----------------|-----------------||
    |-----------------|-----------------||
    |-----------------|-----------------||
    |-7-5-7-5-2-0-----|-----------------||
    |-------------2-1-|-0---------------||
    |-----------------|---3-5-3-5-3-5s7-||
    |
    | E E E E E E Q     E E E Q   E E E
    |-----------------|-----------------||
    |-----------------|-----------------||
    |-------5-----5---|-----------7-7---||
    |-5-----5-5-5-5---|---7-7-----7-7---||
    |-5-5-5-3-3-3-3---|---7-7-----5-5---||
    |-3-3-3-----------|---5-5-----------||
    
    
      E5        C5              A5       D5
      Gtrs I, II
      Q.         Q     E Q        Q.      Q   E  Q
      |          |     | |        |       |   |  |
      /          /     / /        /       /   /  /
    
      E    E  E  E  E  Q    E    +Q    E  Q.     E  E
    |--------12-14-15---------|-------15-14-----------|
    |----/15----------12---13-|-(13)---------------12-|
    |-------------------------|-----------------14----|
    |-------------------------|-----------------------|
    |-------------------------|-----------------------|
    |-------------------------|-----------------------|
    
    
      G5        C5             A5                  D5
        Q.       Q   E  Q       Q.                  Q           E  Q
        |        |   |  |       |                   |           |  |
        /        /   /  /       /                   /           /  /
    
                                                                ~~~~
                                |----3-----|
       +Q     E  Q   E  E  E    E     +E   E  S  S  E  +E      +Q.
    |-------/14-12-----------|----------------------------------------|
    |-(12)-------------------|----------------------------------------|
    |---------------12-12-14-|-14b15r(14)p12h14p12h14-(14)b16-(14)----|
    |------------------------|----------------------------------------|
    |------------------------|----------------------------------------|
    |------------------------|----------------------------------------|
    
    
      E5        C5              A5       D5
      Q.         Q     E Q        Q.      Q    E  Q
      |          |     | |        |       |    |  |
      /          /     / /        /       /    /  /
    
                                                  |--3--|
      E    E  E  E  E  Q    E    +Q    E  Q    E  E  E  E
    |--------12-14-15---------|-------15-14--/14-14-15-17-|
    |----/15----------12---13-|-(13)----------------------|
    |-------------------------|---------------------------|
    |-------------------------|---------------------------|
    |-------------------------|---------------------------|
    |-------------------------|---------------------------|
    
    
      G5                  C5                      A5                D5       E5
       Q.                  Q           E Q      E  E        E  Q    E E E    W
       |                   |           | |         |        |       | |
       /                   /           / /         /        /       / /
    
                                                                             Gtrs I, II
                                   ~~~~~                          ~~         PM------------|
       |----3-----|                                |--3--|
       E     +E   E  S  S  E      +H            E  S  S  S  E  E  H          E E E E E E E E
    |-17b19r(17)p15h17p15h17b19==(17)r------|-/19-15h17p15----------------||------------------||
    |---------------------------------------|--------------17-15-17-------||------------------||
    |---------------------------------------|-----------------------------||------------------||
    |---------------------------------------|-----------------------------||------------------||
    |---------------------------------------|-----------------------------||-2-2-2-2-2-2-2-2--||
    |---------------------------------------|-----------------------------||-0-0-0-0-0-0-0-0--||
    
    
       Chorus
        F5
        Gtr III
         H           E  E  E  E    +E   Q     Q     Q    a  E
    ||--------------------------|-----------------------------|
    ||o-------------------------|-----------------------------|
    ||--------------------------|-----------------------------|
    ||--------------------------|-----------------------------|
    ||o-/8-----------8--8--8-10-|-(10)--8----10-----8----8s11-|
    ||--------------------------|-----------------------------|
    |
    |   Gtrs I, II
    |    E  E  E  E  E  E  E  E     E   E  E  E  E  E  E    E
    ||--------------------------|-----------------------------|
    ||o-------------------------|-----------------------------|
    ||--------------------------|-----------------------------|
    ||--10-10-10-10-10-10-10-10-|--10--10-10-10-10-10-10---10-|
    ||o--8--8--8--8--8--8--8--8-|---8---8--8--8--8--8--8----8-|
    ||--------------------------|-----------------------------|
    
    
      C#/F
        ~~~~
       +H            E  E  E  E    +E   Q     Q     Q     E
    |---------------------------|---------------------------|
    |---------------------------|---------------------------|
    |---------------------------|---------------------------|
    |---------------------------|---------------------------|
    |-(11)-----------8--8--8-10-|-(10)--8----10----11-----9-|
    |---------------------------|---------------------------|
    |
    |   E   E  E  E  E  E  E  E     E   E  E  E  E  E  E  E
    |---------------------------|---------------------------|
    |---------------------------|---------------------------|
    |---------------------------|---------------------------|
    |--11--11-11-11-11-11-11-11-|--11--11-11-11-11-11-11-11-|
    |---8---8--8--8--8--8--8--8-|---8---8--8--8--8--8--8--8-|
    |---------------------------|---------------------------|
    
    
      F#5
       ~~~
      +H            E  E  E  E   +E   Q    a  Q     Q     E
    |--------------------------|----------------------------|
    |--------------------------|----------------------------|
    |--------------------------|----------------------------|
    |--------------------------|----------------------------|
    |-(9)-----------9--9--9--9-|-(9)--9----9s11-----9-----8-|
    |--------------------------|----------------------------|
    |
    |  E   E  E  E  E  E  E  E    E   E  E    E  E  E  E  E
    |--------------------------|----------------------------|
    |--------------------------|----------------------------|
    |--------------------------|----------------------------|
    |-11--11-11-11-11-11-11-11-|-11--11-11---11-11-11-11-11-|
    |--9---9--9--9--9--9--9--9-|--9---9--9----9--9--9--9--9-|
    |--------------------------|----------------------------|
    
    
      F5                          C/E
       ~~~                         ~~~
      +H           +E   E  E  E   +W
    |---------------------------|----------------------------||
    |---------------------------|---------------------------o||
    |---------------------------|----------------------------||
    |---------------------------|----------------------------||
    |-(8)----------(8)-10--8--7-|-(7)-----------------------o||
    |---------------------------|----------------------------||
    |
    |  E   E  E  E  E   E  E  E    E   E  E  E  E  E  E  E
    |---------------------------|----------------------------||
    |---------------------------|---------------------------o||
    |---------------------------|----------------------------||
    |-10--10-10-10-10--10-10-10-|-10--10-10-10-10-10-10-10---||
    |--8---8--8--8--8---8--8--8-|--7---7--7--7--7--7--7--7--o||
    |---------------------------|----------------------------||
    
    
     Outro-Solo
      F5
       ~~~~~~~~~~~~~~~~~~~~~~~~~~~~~~~~~~~
                                                    |-----3-----|
       W                             +H             Q     Q     Q
    |-----------------------------|----------------------15----16----|
    |-17b18=======================|=(17)r----------18----------------|
    |-----------------------------|----------------------------------|
    |-----------------------------|----------------------------------|
    |-----------------------------|----------------------------------|
    |-----------------------------|----------------------------------|
    |
    |  E      E  E  E  E  E  E  E     E    E  E  E  E  E     E     E
    |-----------------------------|----------------------------------|
    |-----------------------------|----------------------------------|
    |-----------------------------|----------------------------------|
    |-10-----10-10-10-10-10-10-10-|--10---10-10-10-10-10----10----10-|
    |--8------8--8--8--8--8--8--8-|---8----8--8--8--8--8-----8-----8-|
    |-----------------------------|----------------------------------|
    
    
      C#/F
       ~~~~~~                               ~~~~~
       H.                    +E   +S   S    W
    |-18b20=================(18)r(18)p16-|-18b20-----------------------|
    |------------------------------------|-----------------------------|
    |------------------------------------|-----------------------------|
    |------------------------------------|-----------------------------|
    |------------------------------------|-----------------------------|
    |------------------------------------|-----------------------------|
    |
    |  E      E  E  E  E  E   E    E        E     E  E  E  E  E  E  E
    |------------------------------------|-----------------------------|
    |------------------------------------|-----------------------------|
    |------------------------------------|-----------------------------|
    |-11-----11-11-11-11-11--11---11-----|-11----11-11-11-11-11-11-11--|
    |--8------8--8--8--8--8---8----8-----|--8-----8--8--8--8--8--8--8--|
    |------------------------------------|-----------------------------|
    
    
      F#5
                         ~~
        E.     E.     E  H              E.     E.     E  E.     E.     E
    |---------16-----18-18----------|---------16-----18-18-----16--------|
    |-/19---------------------------|-/19-----------------------------19-|
    |-------------------------------|------------------------------------|
    |-------------------------------|------------------------------------|
    |-------------------------------|------------------------------------|
    |-------------------------------|------------------------------------|
    |
    |   E   E      E  E  E  E  E  E     E   E      E  E  E   E      E  E
    |-------------------------------|------------------------------------|
    |-------------------------------|------------------------------------|
    |-------------------------------|------------------------------------|
    |--11--11-----11-11-11-11-11-11-|--11--11-----11-11-11--11-----11-11-|
    |---9---9------9--9--9--9--9--9-|---9---9------9--9--9---9------9--9-|
    |-------------------------------|------------------------------------|
    
    
      F5                          C/E
       ~~~~~~~~~~~~~~~~       ~~~~~~~~~
       H           +E   E  E  E    +H.                 +Q
    |---------------------------|-------------------------------||
    |-18----------(18)-20-18----|-------------------------------||
    |------------------------17-|-(17)----------------(17)\-----||
    |---------------------------|-------------------------------||
    |---------------------------|-------------------------------||
    |---------------------------|-------------------------------||
    |
    |  E  E  E  E   E   E  E  E     E   E  E  E  E  E   E    E
    |---------------------------|-------------------------------||
    |---------------------------|-------------------------------||
    |---------------------------|-------------------------------||
    |-10-10-10-10--10--10-10-10-|--10--10-10-10-10-10--10---10--||
    |--8--8--8--8---8---8--8--8-|---7---7--7--7--7--7---7----7--||
    |---------------------------|-------------------------------||
    
    
      F5
       S  S  S  S  S  S  S  S  S  S  S  S  S  S  S  S    S  S  S  S  S  S  S  S  S  S  S  S  S  S  S  S
    |-20p16----------16-20p16----------16-20p16-------|----16-20p16----------16-20p16----------16-20p16-|
    |-------18----18----------18----18----------18----|-18----------18----18----------18----18----------|
    |----------17----------------17----------------17-|----------------17----------------17-------------|
    |-------------------------------------------------|-------------------------------------------------|
    |-------------------------------------------------|-------------------------------------------------|
    |-------------------------------------------------|-------------------------------------------------|
    |
    |  E     E     E     E     E     E     E     E       E     E     E     E     E     E     E     E
    |-------------------------------------------------|-------------------------------------------------|
    |-------------------------------------------------|-------------------------------------------------|
    |-------------------------------------------------|-------------------------------------------------|
    |-10----10----10----10----10----10----10----10----|-10----10----10----10----10----10----10----10----|
    |--8-----8-----8-----8-----8-----8-----8-----8----|--8-----8-----8-----8-----8-----8-----8-----8----|
    |-------------------------------------------------|-------------------------------------------------|
    
    
      C#/F
                                                                                 ~~
       S  S  S  S  S  S  S  S  S  S  S  S  S  S  S  S    S  S  S  S  S  S  S  S  H
    |-21p16----------16-21p16----------16-23p16-------|----16-21p16----------16-20------------|
    |-------18-16-18----------18-16-18----------18-16-|-18----------18-16-18------------------|
    |-------------------------------------------------|---------------------------------------|
    |-------------------------------------------------|---------------------------------------|
    |-------------------------------------------------|---------------------------------------|
    |-------------------------------------------------|---------------------------------------|
    |
    |  E     E     E     E     E     E     E     E       E     E     E     E     E  E  E  E
    |-------------------------------------------------|---------------------------------------|
    |-------------------------------------------------|---------------------------------------|
    |-------------------------------------------------|---------------------------------------|
    |-11----11----11----11----11----11----11----11----|-11----11----11----11----11-11-11-11---|
    |--8-----8-----8-----8-----8-----8-----8-----8----|--8-----8-----8-----8-----8--8--8--8---|
    |-------------------------------------------------|---------------------------------------|
    
    
      F#5
                                                                               ~~~~~
                                            |---3----|
       E.        +E.     E  S  +S      +E   E  E     E    E.        +E.     E  H
    |--------------------------------------------------|-------------------------------------|
    |--------------------------------------------------|-------------------------------------|
    |-17pb18r===(17)----15-15-(15)b17r(15)----15----17-|-17pb18r===(17)----15-17b18----------|
    |--------------------------------------18----------|-------------------------------------|
    |--------------------------------------------------|-------------------------------------|
    |--------------------------------------------------|-------------------------------------|
    |
    |  E      E       E  E  E           E   E     E       E      E       E  E  E     E  E  E
    |--------------------------------------------------|-------------------------------------|
    |--------------------------------------------------|-------------------------------------|
    |--------------------------------------------------|-------------------------------------|
    |-11-----11------11-11-11----------11--11----11----|-11-----11------11-11-11----11-11-11-|
    |--9------9-------9--9--9-----------9---9-----9----|--9------9-------9--9--9-----9--9--9-|
    |--------------------------------------------------|-------------------------------------|
    
    
      F5                               C/E                           C5F5C5     F5
                       |--3--|
       E   E  E  E  E  S  S  S  E  E    E  S  S  S  S  S  S      +Q.      +E     Q    H.
    |-----------16-18-13h18p13-------|-15-16-15-13----13----------------------|-13\---------*|
    |--------18----------------16-13-|-------------16----16b18==(16)r====(16)-|-------------*|
    |----/17-------------------------|----------------------------------------|-------------*|
    |--------------------------------|----------------------------------------|-------------*|
    |--------------------------------|----------------------------------------|-------------*|
    |--------------------------------|----------------------------------------|-------------*|
    |
    |  E   E  E  E  E  E        E  E    H                        +E  E E   E     E  E H.
    |--------------------------------|----------------------------------------|-------------*|
    |--------------------------------|---------------------------------6------|-------------*|
    |--------------------------------|-------------------------------5-5---5--|-------------*|
    |-10--10-10-10-10-10-------10-10-|-10-----------------------(10)-5-3---5--|--3----------*|
    |--8---8--8--8--8--8--------8--8-|--7------------------------(7)-3-----3--|--3----------*|
    |--------------------------------|----------------------------------------|--1----------*|
    
    

    Тональность:

    Это должно быть в ТОП-листе! - Топ-лист композиций



    Назад
    Рекомендуем посмотреть другие песни исполнителя «Arch Enemy»:

    • Комменты Fb ()
    • Комменты ВК



    Добавить в Избранное Браузера
    Сохранить здесь Очистить


    x

    0


    +
    -

    +
    -

    -

    Авторизация





    Зарегистрироваться

    M

    Дата и время

    • 05:42:04
       

    Социальные ссылки


    Наши приложения

    • Muzbank App Play Market
    • Muzbank Amazon App
    • Muzbank Bitcoin13igjuWJj2R4cHiyZqP7Q3ggVvfXE9j82Q