MUZBANK


МУЗЫКАЛЬНО-ИНФОРМАЦИОННЫЙ БАНК





AArch Enemy • Bury Me An Angel (аккорды и текст - chords & lyrics)


585

Print

Видео «Bury Me An Angel (Arch Enemy)»

Видео клипы к песне подбираются автоматически сайтом youtube. Возможны некоторые несоответствия клипов песне.

↑ Спрятать рекламу ↑





Symbolical and mystical
Between life and death we′re torn
A constant struggle
Like an apocrypha
Nobody can be certain
A thousand days, spent in hell
The ultimate sacrifice
Your voyage starts
With a question mark
But the distant future
Will not tell

Bury me an angel
Set my black soul free!!

Blackened chariots
Bearing evil souls
Ride the surface of burning holes
Nocturnal... traveller
You represent the ruined spirit
Symbolical and mystical
You shall be damned for all time



Tune Gtr to B


 Intro  (Q=190)  N.C.
 2/4      4/4
           Gtrs I, II
           PM------------|               PM------------|
|------||------------------------------|------------------------------|
|------||o-----------------------------|------------------------------|
|------||------------------------------|------------------------------|
|------||------------------------------|------------------------------|
|------||o-----------------------0h5h8-|-----------------0h5h8--------|
|------||--0-0-0-0-0-0-0-0-0h4h7-------|-0-0-0-0-0-0-0-0-------0h4h7--|


  PM------------|
                                                         4x
|-----------------------------|---------------------------||
|-----------------------------|--------------------------o||
|-----------------------------|---------------------------||
|-----------------------------|-0h6h9---------------------||
|-----------------------0h5h8-|-------0h5h8-------0h5h8--o||
|-0-0-0-0-0-0-0-0-0h4h7-------|-------------0h4h7---------||


  N.C.
  Gtr I
|-------------------------|-------------------------|
|-------------------------|-------------------------|
|-------------------------|-------------------------|
|-------------------------|-------------------------|
|-------------------------|-------------------------|
|-------------------------|-------------------------|
|
| Gtr II
| PM----|     PM----|       PM----|     PM----|
|-------------------------|-------------------------|
|-------------------------|-------------------------|
|-------------------------|-------------------------|
|---------9p6-------------|-------------------------|
|---------------------8p5-|---------------------5h8-|
|-0-0-0-0-----0-0-0-0-----|-0-0-0-0-7p4-0-0-0-0-----|



|-------------------------|-------------------------|
|-------------------------|-------------------------|
|-------------------------|-------------------------|
|-------------------------|-------------0h6h9-------|
|-------------------------|-------0h5h8-------0h5h8-|
|-------------------------|-0h4h7-------------------|
|
| PM----|     PM----|
|-------------------------|-------------------------|
|-------------------------|-------------------------|
|-------------------------|-------------------------|
|---------9p6-------------|-------------0h6h9-------|
|---------------------8p5-|-------0h5h8-------0h5h8-|
|-0-0-0-0-----0-0-0-0-----|-0h4h7-------------------|


    Gtrs I, II
    PM----|     PM----|       PM----|     PM----|
||--------------------------|--------------------------|
||o-------------------------|--------------------------|
||--------------------------|--------------------------|
||----------9p6-------------|--------------------------|
||o---------------------8p5-|---------------------5h8--|
||--0-0-0-0-----0-0-0-0-----|-0-0-0-0-7p4-0-0-0-0------|


  PM----|     PM----|
                                                     3x
|-------------------------|--------------------------||
|-------------------------|-------------------------o||
|-------------------------|--------------------------||
|---------9p6-------------|-------------0h6h9--------||
|---------------------8p5-|-------0h5h8-------0h5h8-o||
|-0-0-0-0-----0-0-0-0-----|-0h4h7--------------------||


   Chorus
    A5       F5            E5              A5
    Gtr I
                                            ~~~~~~~

||----------------------------|-------------------------|
||o---------------------------|-------------------------|
||--14-16-17---------12-14-13-|-(13)-14-13--------------|
||-----------15-(15)----------|------------14-(14)------|
||o---------------------------|-------------------------|
||----------------------------|-------------------------|
|
|   Gtr II
| 
|                                           ~~~~~~~  
||----------------------------|-------------------------|
||o-13-15-17------------------|-------------------------|
||-----------14-(14)-16-17-16-|-(16)-17-16-14-(14)------|
||----------------------------|-------------------------|
||o---------------------------|-------------------------|
||----------------------------|-------------------------|
|
|   Gtr III
|
||----------------------------|-------------------------|
||o---------------------------|-------------------------|
||----------------------------|-------------------------|
||----------------------------|-------------------------|
||o--7--7--7--3--(3)--3--3--2-|--(2)--2--2--7--(7)-7-7--|
||---5--5--5--1--(1)--1--1--0-|--(0)--0--0--5--(5)-5-5--|


  A5       F5            E5              N.C.(G)
|---------------------------|-------------------------------------||
|---------------------------|------------------------------------o||
|-14-16-17---------12-14-13-|-(13)-14-13-16b17==(16)-(16)r(16)----||
|----------15-(15)----------|-------------------------------------||
|---------------------------|------------------------------------o||
|---------------------------|-------------------------------------||
|
| 
|---------------------------|-------------------------------------||
|-13-15-17------------------|------13-15-15b17==(15)-(15)r(15)---o||
|----------14-(14)-16-17-16-|-(16)--------------------------------||
|---------------------------|-------------------------------------||
|---------------------------|------------------------------------o||
|---------------------------|-------------------------------------||
|
|                                         ~~~~~~~~~~~
|---------------------------|-------------------------------------||
|---------------------------|------------------------------------o||
|---------------------------|-------------------------------------||
|---------------------------|-------------------------------------||
|--7--7--7--3--(3)--3--3--2-|--(2)--2--2-------------------------o||
|--5--5--5--1--(1)--1--1--0-|--(0)--0--0--3------(3)--------------||


   Verse    (N.C.)
    Gtrs I, II
    PM------------|               PM------------|
||------------------------------|-----------------------------|
||o-----------------------------|-----------------------------|
||------------------------------|-----------------------------|
||------------------------------|-----------------------------|
||o-----------------------0h5h8-|-----------------0h5h8-------|
||--0-0-0-0-0-0-0-0-0h4h7-------|-0-0-0-0-0-0-0-0-------0h4h7-|


  PM------------|
|-----------------------------|---------------------------||
|-----------------------------|--------------------------o||
|-----------------------------|---------------------------||
|-----------------------------|-0h6h9---------------------||
|-----------------------0h5h8-|-------0h5h8-------0h5h8--o||
|-0-0-0-0-0-0-0-0-0h4h7-------|-------------0h4h7---------||


    N.C.
    PM----|     PM----|       PM----|     PM----|
||--------------------------|--------------------------|
||o-------------------------|--------------------------|
||--------------------------|--------------------------|
||----------9p6-------------|--------------------------|
||o---------------------8p5-|---------------------5h8--|
||--0-0-0-0-----0-0-0-0-----|-0-0-0-0-7p4-0-0-0-0------|


  PM----|     PM----|
|-------------------------|--------------------------||
|-------------------------|-------------------------o||
|-------------------------|--------------------------||
|---------9p6-------------|-------------0h6h9--------||
|---------------------8p5-|-------0h5h8-------0h5h8-o||
|-0-0-0-0-----0-0-0-0-----|-0h4h7--------------------||


   Chorus
    A5       F5            F5              A5
    Gtr I
                                            ~~~~~~~
||----------------------------|-------------------------|
||o---------------------------|-------------------------|
||--14-16-17---------12-14-13-|-(13)-14-13--------------|
||-----------15-(15)----------|------------14-(14)------|
||o---------------------------|-------------------------|
||----------------------------|-------------------------|
|
|   Gtr II
|                                           ~~~~~~~
||----------------------------|-------------------------|
||o-13-15-17------------------|-------------------------|
||-----------14-(14)-16-17-16-|-(16)-17-16-14-(14)------|
||----------------------------|-------------------------|
||o---------------------------|-------------------------|
||----------------------------|-------------------------|
|
|   Gtr III
||----------------------------|-------------------------|
||o---------------------------|-------------------------|
||----------------------------|-------------------------|
||----------------------------|-------------------------|
||o--7--7--7--3--(3)--3--3--2-|--(2)--2--2--7--(7)-7-7--|
||---5--5--5--1--(1)--1--1--0-|--(0)--0--0--5--(5)-5-5--|


  A5       F5            E5              N.C.(G)
|---------------------------|-------------------------------------||
|---------------------------|------------------------------------o||
|-14-16-17---------12-14-13-|-(13)-14-13-16b17==(16)-(16)r(16)----||
|----------15-(15)----------|-------------------------------------||
|---------------------------|------------------------------------o||
|---------------------------|-------------------------------------||
|
| 
|---------------------------|-------------------------------------||
|-13-15-17------------------|------13-15-15b17==(15)-(15)r(15)---o||
|----------14-(14)-16-17-16-|-(16)--------------------------------||
|---------------------------|-------------------------------------||
|---------------------------|------------------------------------o||
|---------------------------|-------------------------------------||
|
|                                         ~~~~~~~~~~~
|---------------------------|-------------------------------------||
|---------------------------|------------------------------------o||
|---------------------------|-------------------------------------||
|---------------------------|-------------------------------------||
|--7--7--7--3--(3)--3--3--2-|--(2)--2--2-------------------------o||
|--5--5--5--1--(1)--1--1--0-|--(0)--0--0--3------(3)--------------||


  N.C.
              ~~~~~~~                    ~~~~~~~
|--------------------------|--------------------------|
|--------------------------|--------------------------|
|-14-16---17-14-(14)-------|-14-16---17-14-(14)-------|
|--------------------------|--------------------------|
|--------------------------|--------------------------|
|--------------------------|--------------------------|
|
|
|             ~~~~~~~                    ~~~~~~~
|--------------------------|--------------------------|
|-13-15---17-13-(13)-------|-13-15---17-13-(13)-------|
|--------------------------|--------------------------|
|--------------------------|--------------------------|
|--------------------------|--------------------------|
|--------------------------|--------------------------|
|
| 
|--------------------------|--------------------------|
|--------------------------|--------------------------|
|--------------------------|--------------------------|
|-------------7--------7---|-------------6--------6---|
|--------------------------|--------------------------|
|--5--5-5--5------5--5---5-|--4--4-4--4------4--4---4-|


              ~~~~~~~~~~~~
|--------------------------------|
|--------------------------------|
|-14-16---17-17b19==(17)r-----14-|
|--------------------------------|
|--------------------------------|
|--------------------------------|
|
|  
|--------------------------------|
|-13-15---17-17b18==(17)---------|
|--------------------------------|
|--------------------------------|
|--------------------------------|
|--------------------------------|
|
|
|--------------------------------|
|--------------------------------|
|--------------------------------|
|-------------5-------------5----|
|--------------------------------|
|--3--3-3--3----------3---3----3-|


                          ~~~~~       TP
|-----------------------------------|------|
|-----------------------------------|------|
|-14h17p14----14--------------------|------|
|----------17----17b19==(17)r-------|-7----|
|-----------------------------------|------|
|-----------------------------------|------|
|
|
|                                     TP
|-----------------------------------|------|
|-13h17p13----13--------------------|------|
|----------16----16b17==(16)r-------|------|
|-----------------------------------|-7----|
|-----------------------------------|------|
|-----------------------------------|------|
|
|  
|-----------------------------------|------|
|-----------------------------------|------|
|-----------------------------------|------|
|-----------------4-------------4---|------|
|-----------------------------------|------|
|--2-----2--2--2----------2---2---2-|------|


  Gtrs I, II
  TP         TP         ~
|----------|----------|------|
|----------|----------|------|
|----------|----------|------|
|-6--------|-5--------|-4----|
|----------|----------|------|
|----------|----------|------|


 Breakdown  (Q=120)
  N.C.                      A5    D5  N.C.                        G5
  Gtr I
|---------------------|-----------------------|---------------------|
|---------------------|-----------------------|---------------------|
|---------------------|-----------------------|---------------------|
|---------------------|-----------------------|---------------------|
|---------------------|-----------------------|---------------------|
|---------------------|-----------------------|---------------------|
|
| Gtr II
| PM|             PM    PM|   PM|   PM          PM|             PM
|---------------------|-----------------------|---------------------|
|---------------------|-----------------------|---------------------|
|-----6b7==(6)r6------|-----------------------|---------------------|
|-----7b8==(7)-7------|-----------7---7s8s7-5-|-----7b8==(7)r7------|
|-------------------5-|-----7-----5---7s8s7-5-|-------------------5-|
|-0-0-------------0-3-|-0-0-5-0-0---0---------|-0-0-------------0-3-|


     A5  N.C.               E5                (G5)      (A5)  (D5)N.C.
|-------------------------|---------------------|-------------------------|
|-------------------------|---------------------|-------------------------|
|-------------------------|---------------------|-------------------------|
|-------------------------|---------------------|-------------------------|
|-------------------------|-2-------------------|-(2)---------------------|
|------------------3b4.5--|-0-------------------|-(0)---------------------|
|
| PM   PM                   PM|             PM     PM-|   PM|   PM
|-------------------------|---------------------|-------------------------|
|-------------------------|---------------------|-------------------------|
|-------------------------|---------------------|-------------------------|
|-------------------------|-----7b8==(7)r7------|-------------7---7s8s7-5-|
|----7---5s7--(7)s10\-----|-------------------5-|-------7-----5---7s8s7-5-|
|-0--5-0------------------|-0-0-------------0-3-|--0--0-5-0-0---0---------|


  E/N.C.            G5      N.C.
                                   ~~~~~~~~~~~~
|---------------------|-----------12-----12-----|
|---------------------|-----------15b17--15b17--|
|---------------------|-------------------------|
|-2-------------------|-------------------------|
|-2-----------------5-|-(5)---------------------|
|-------------------3-|-(3)-0-0-0---------------|
|
| PM|             PM        PM--|  ~~~~~~~~~~~~
|---------------------|-----------12-----12-----|
|---------------------|-----------15b17--15b17--|
|---------------------|-------------------------|
|-----7b8==(7)r7------|-------------------------|
|-------------------5-|-(5)---------------------|
|-0-0-------------0-3-|-(3)-0-0-0---------------|


  (N.C.)            G5      A5    D5  N.C.      N.C.              G5
  PM|             PM    PM|   PM|   PM          PM|             PM
|---------------------|-----------------------|---------------------|
|---------------------|-----------------------|---------------------|
|---------------------|-----------------------|-----6b7==(6)r6------|
|-----7b8==(7)r7------|-----------7---7s8s7-5-|---------------------|
|-------------------5-|-----7-----5---7s8s7-5-|-------------------5-|
|-0-0-------------0-3-|-0-0-5-0-0---0---------|-0-0-------------0-3-|
|
| PM|             PM    PM|   PM|   PM          PM|             PM
|---------------------|-----------------------|---------------------|
|---------------------|-----------------------|---------------------|
|---------------------|-----------------------|---------------------|
|-----7b8==(7)r7------|-----------7---7s8s7-5-|-----7b8==(7)r7------|
|-------------------5-|-----7-----5---7s8s7-5-|-------------------5-|
|-0-0-------------0-3-|-0-0-5-0-0---0---------|-0-0-------------0-3-|


    A5  N.C.                        G5      A5    D5  N.C.
  Gtrs I, II
  PM  PM          PM|             PM    PM|   PM|   PM
|---------------|---------------------|-----------------------|
|---------------|---------------------|-----------------------|
|---------------|---------------------|-----------------------|
|---------------|-----7b8==(7)r7------|-----------7---7s8s7-5-|
|---7---5s7--7--|-------------------5-|-----7-----5---7s8s7-5-|
|-0-5-0---------|-0-0-------------0-3-|-0-0-5-0-0---0---------|


  (N.C.)            G5      A5  D5E5
  Gtr I
  PM|             PM
|---------------------|-----------------|
|---------------------|-----------------|
|---------------------|---------7s9--9--|
|-----7b8==(7)r7------|-----------------|
|-------------------5-|-(5)-7-7-5s7--7--|
|-0-0-------------0-3-|-(3)-5-5---------|
|
| Gtr II
| PM|             PM
|---------------------|-----------------|
|---------------------|-----------------|
|---------------------|-----------------|
|-----7b8==(7)r7------|---------7s9--9--|
|-------------------5-|-(5)-7-7-5s7--7--|
|-0-0-------------0-3-|-(3)-5-5---------|


 Bridge  (N.C.)

|-------------------|----------------|
|-------------------|----------------|
|-5----(5)-/7-(7)-5-|-4-------4--(4)S|
|-------------------|----------------|
|-3----(3)-/5-(5)-3-|-2-------2--(2)S|
|-------------------|----------------|
|
| 
|-------------------|----------------|
|-------------------|----------------|
|-5----(5)-/7-(7)-5-|-4-------4--(4)S|
|-------------------|----------------|
|-3----(3)-/5-(5)-3-|-2-------2--(2)S|
|-------------------|----------------|



|-------------------|-----------------------|
|-------------------|-----------------------|
|-9----(9)-9-(9)-12-|-11----(11)-12-(12)-11-|
|-------------------|-----------------------|
|-7----(7)-7-(7)-10-|--9-----(9)-10-(10)--9-|
|-------------------|-----------------------|
|
|
|-------------------|-----------------------|
|-------------------|-----------------------|
|-9----(9)-9-(9)-12-|--7--------------------|
|-------------------|-----------------------|
|-7----(7)-7-(7)-10-|--5--------------------|
|-------------------|-----------------------|


                                          E5
|-------------------|-------------------|----------|--------|
|-------------------|-------------------|----------|--------|
|-9-----------------|-7----/9------/12--|-9--------|-(9)----|
|-------------------|-------------------|----------|--------|
|-7-----------------|-5----/7------/10--|-7--------|-(7)----|
|-------------------|-------------------|----------|--------|
|
|
|                           ~~~~~~
|-------------------|-------------------|----------|--------|
|-------------------|-------------------|----------|--------|
|-5----(5)-/7-(7)-5-|-4-----------------|----------|--------|
|-------------------|-------------------|----------|--------|
|-3----(3)-/5-(5)-3-|-2-----------------|-2--------|-(2)----|
|-------------------|-------3b3.5-------|-0--------|-(0)----|


 Lead - M. Amott  (N.C.)
  Gtr III
  
|-22b24----22b24=========22r19-|-22b24---------20-----|
|------------------------------|----------------------|
|------------------------------|----------------------|
|------------------------------|----------------------|
|------------------------------|----------------------|
|------------------------------|----------------------|
|
| Gtr I
|  
|------------------------------|----------------------|
|------------------------------|----------------------|
|--5-------(5)----/7-(7)--5----|--4---------4-----(4)S|
|------------------------------|----------------------|
|--3-------(3)----/5-(5)--3----|--2---------2-----(2)S|
|------------------------------|----------------------|
|
| Gtr II
| 
|------------------------------|----------------------|
|------------------------------|----------------------|
|--5-------(5)----/7-(7)--5----|--4---------4-----(4)S|
|------------------------------|----------------------|
|--3-------(3)----/5-(5)--3----|--2---------2-----(2)S|
|------------------------------|----------------------|


                                               ~~~~~~~
                                |--3--|
|-19-20-17-19-15--19--14--17-|-14h17p14----14--------------------|
|----------------------------|----------17----17-(17)------------|
|----------------------------|-----------------------------------|
|----------------------------|-----------------------------------|
|----------------------------|-----------------------------------|
|----------------------------|-----------------------------------|
|
|  
|----------------------------|-----------------------------------|
|----------------------------|-----------------------------------|
|-12----------12--14-(14)-12-|-11----------------(11)-12-(12)-11-|
|----------------------------|-----------------------------------|
|-10----------10--12-(12)-10-|--9-----------------(9)-10-(10)--9-|
|----------------------------|-----------------------------------|
|
| 
|----------------------------|-----------------------------------|
|----------------------------|-----------------------------------|
|--9----------(9)--9--(9)-12-|--7--------------------------------|
|----------------------------|-----------------------------------|
|--7----------(7)--7--(7)-10-|--5--------------------------------|
|----------------------------|-----------------------------------|


                                         ~~~~~~~~~~~~~~~~~~~
            |---3----|                                         |------3------|
|---------------------------------------------|--------------------------------|
|-15b17===(15)r(15)-12-15--12-----------------|-----------------------------14-|
|-----------------------------14-12-14--12----|-(12)--(12)\----------12-----14-|
|---------------------------------------------|--------------/14---------------|
|---------------------------------------------|--------------------------------|
|---------------------------------------------|--------------------------------|
|
| Gtr I
| 
|---------------------------------------------|--------------------------------|
|---------------------------------------------|--------------------------------|
|--9------------------------------------------|---7-----------/9--------/12----|
|---------------------------------------------|--------------------------------|
|--7------------------------------------------|---5-----------/7--------/10----|
|---------------------------------------------|--------------------------------|
|
| Gtr II
| 
|                                                             ~~~~~~~
|---------------------------------------------|--------------------------------|
|---------------------------------------------|--------------------------------|
|--5-------------------(5)----/7----(7)-----5-|---4----------------------------|
|---------------------------------------------|--------------------------------|
|--3-------------------(3)----/5----(5)-----3-|---2----------------------------|
|---------------------------------------------|----------------3b3.5-----------|


  E5
                                                      ~~~~~
                                 |---3----|  |--3--|
|-----------------------------|-------12----------------------|
|-14b15==14rp12-14-12-(12)----|-15b17----15-12----------------|
|-14b15==14rp12-14-12-(12)----|----------------14-12-14b16----|
|-----------------------------|-------------------------------|
|-----------------------------|-------------------------------|
|-----------------------------|-------------------------------|
|
|
|-----------------------------|-------------------------------|
|-----------------------------|-------------------------------|
|--9--------------------------|-(9)---------------------------|
|-----------------------------|-------------------------------|
|--7--------------------------|-(7)---------------------------|
|-----------------------------|-------------------------------|
|
|
|-----------------------------|-------------------------------|
|-----------------------------|-------------------------------|
|-----------------------------|-------------------------------|
|-----------------------------|-------------------------------|
|--2--------------------------|-(2)---------------------------|
|--0--------------------------|-(0)---------------------------|


   /Chorus/    (Q=185)
    A5       F5            E5              A5
    Gtr I
                                            ~~~~~~~
||----------------------------|-------------------------|
||o---------------------------|-------------------------|
||--14-16-17---------12-14-13-|-(13)-14-13--------------|
||-----------15-(15)----------|------------14-(14)------|
||o---------------------------|-------------------------|
||----------------------------|-------------------------|
|
|   Gtr II
|                                           ~~~~~~~
||----------------------------|-------------------------|
||o-13-15-17------------------|-------------------------|
||-----------14-(14)-16-17-16-|-(16)-17-16-14-(14)------|
||----------------------------|-------------------------|
||o---------------------------|-------------------------|
||----------------------------|-------------------------|
|
|
|   Gtr III
||----------------------------|-------------------------|
||o---------------------------|-------------------------|
||----------------------------|-------------------------|
||----------------------------|-------------------------|
||o--7--7--7--3--(3)--3--3--2-|--(2)--2--2--7--(7)-7-7--|
||---5--5--5--1--(1)--1--1--0-|--(0)--0--0--5--(5)-5-5--|


           F5            E5              N.C.
|---------------------------|-------------------------------------||
|---------------------------|------------------------------------o||
|-14-16-17---------12-14-13-|-(13)-14-13-16b17==(16)-(16)r(16)----||
|----------15-(15)----------|-------------------------------------||
|---------------------------|------------------------------------o||
|---------------------------|-------------------------------------||
|
|
|---------------------------|-------------------------------------||
|-13-15-17------------------|------13-15-15b17==(15)-(15)r(15)---o||
|----------14-(14)-16-17-16-|-(16)--------------------------------||
|---------------------------|-------------------------------------||
|---------------------------|------------------------------------o||
|---------------------------|-------------------------------------||
|
|
|                                         ~~~~~~~~~~~
|---------------------------|-------------------------------------||
|---------------------------|------------------------------------o||
|---------------------------|-------------------------------------||
|---------------------------|-------------------------------------||
|--7--7--7--3--(3)--3--3--2-|--(2)--2--2-------------------------o||
|--5--5--5--1--(1)--1--1--0-|--(0)--0--0--3------(3)--------------||


 Outro
  Q=190
  N.C.
              ~~~~~~~                    ~~~~~~~
|--------------------------|--------------------------|
|--------------------------|--------------------------|
|-14-16---17-14-(14)-------|-14-16---17-14-(14)-------|
|--------------------------|--------------------------|
|--------------------------|--------------------------|
|--------------------------|--------------------------|
|
|             ~~~~~~~                    ~~~~~~~
|--------------------------|--------------------------|
|-13-15---17-13-(13)-------|-13-15---17-13-(13)-------|
|--------------------------|--------------------------|
|--------------------------|--------------------------|
|--------------------------|--------------------------|
|--------------------------|--------------------------|
|
|
|--------------------------|--------------------------|
|--------------------------|--------------------------|
|--------------------------|--------------------------|
|-------------7--------7---|-------------6--------6---|
|--------------------------|--------------------------|
|--5--5-5--5------5--5---5-|--4--4-4--4------4--4---4-|


              ~~~~~~~~~~~~
|--------------------------------|
|--------------------------------|
|-14-16---17-17b19==(17)r-----14-|
|--------------------------------|
|--------------------------------|
|--------------------------------|
|
|
|--------------------------------|
|-13-15---17-17b18==(17)---------|
|--------------------------------|
|--------------------------------|
|--------------------------------|
|--------------------------------|
|
|
|--------------------------------|
|--------------------------------|
|--------------------------------|
|-------------5-------------5----|
|--------------------------------|
|--3--3-3--3----------3---3----3-|


                               ~~~~~       TP
|----------------------------------------|------|
|----------------------------------------|------|
|-14h17p14----14-------------------------|------|
|----------17----17b19==(17)-(17)r-------|-7----|
|----------------------------------------|------|
|----------------------------------------|------|
|
|                                          TP
|----------------------------------------|------|
|-13h17p13----13-------------------------|------|
|----------16----16b17==(16)-(16)r-------|-6----|
|----------------------------------------|------|
|----------------------------------------|------|
|----------------------------------------|------|
|
|
|----------------------------------------|------|
|----------------------------------------|------|
|----------------------------------------|------|
|-------------------------4----------4---|------|
|----------------------------------------|------|
|--2-----2--2--2---------------2---2---2-|------|


  Gtr I
  TP         TP         ~
  W          W          H    +Q    Q
|----------|----------|---------------*|
|----------|----------|---------------*|
|-5--------|-4--------|-3----(3)\-----*|
|----------|----------|---------------*|
|----------|----------|---------------*|
|----------|----------|---------------*|
|
| Gtr II
| TP         TP         ~
|----------|----------|---------------*|
|----------|----------|---------------*|
|----------|----------|---------------*|
|-6--------|-5--------|-4----(4)\-----*|
|----------|----------|---------------*|
|----------|----------|---------------*|



Тональность:

Это должно быть в ТОП-листе! - Топ-лист композиций



Назад
Рекомендуем посмотреть другие песни исполнителя «Arch Enemy»:

  • Комменты Fb ()
  • Комменты ВК



Добавить в Избранное Браузера
Сохранить здесь Очистить


x

0


+
-

+
-

-

Авторизация





Зарегистрироваться

M

Дата и время

  • 05:27:36
     

Социальные ссылки


Наши приложения

  • Muzbank App Play Market
  • Muzbank Amazon App