MUZBANK



A MOST COMPLETE BANK OF MUSIC INFORMATION

МУЗЫКАЛЬНО-ИНФОРМАЦИОННЫЙ БАНК





AArch Enemy • I will live again (аккорды и текст - chords & lyrics)


578

Print

Видео «I will live again (Arch Enemy)»

Видео клипы к песне подбираются автоматически сайтом youtube. Возможны некоторые несоответствия клипов песне.

↑ Спрятать рекламу ↑





I don’t know
I cannot see
Who we are now
How we used to be

Is it you?
Or is it we?
Look in the mirror
We are a fading memory

Where are we?
We got lost
In the cold

I will live again you’ll see – tomorrow’s not scaring me
Far away from yesterday – just take this pain away

Fatal chaos
Hurtful lies
A broken dream
Is all we left behind

Is it you?
Or is it we?
Look in the mirror
Just a fading memory


/Verse/
---------------------------------------|------------------------------------|
---------------------------------------|------------------------------------|
---------------------------------------|-----------------------------3s--5--|
---------------------------------------|------------------------------------|
--5--5--5-----5--5--5--------3----5----|--6--6--6-----6--6--6--------1s--3--|
--5--5--5-----5--5--5--------3----5----|--6--6--6-----6--6--6---------------|

    
---------------------------------------|---------------------------------|
---------------------------------------|---------------------------------|
---------------------------------------|---------------------------------|
---------------------------------------|---------------------------------|
--5--5--5-----5--5--5--------3----5----|--4--4--4-----1--1--1------------|
--5--5--5-----5--5--5--------3----5----|--4--4--4-----1--1--1------------|


/Bridge/
-------------------------------|-------------------------------|--------------------|
-------------------------------|-------------------------------|--------------------|
--5s-7-x-7-x-x-5---x-5--5--x-x-|--3s-5-x-5-x-x-3---x-3--3--x-x-|--------------------|
-------------------------------|-------------------------------|--------------------|
--3s-5-x-5-x-x-3---x-3--3--x-x-|--1s-3-x-3-x-x-1---x-1--1--x-x-|--------------------|
-------------------------------|-------------------------------|--1--1--1--0--/-----|


|-----------------------|-----------------------|-----------------------|
|-----------------------|-----------------------|-----------------------|
|--9b----9b----/--------|--7b----7b----/--------|-----------------------|
|-----------------------|-----------------------|-----------------------|
|-----------------------|-----------------------|-----------------------|
|-----------------------|-----------------------|--1--1--1--0--/--------|


/Chorus - 1st guitar/
----------------------------------|----------------------------------|
----------------------------------|----------------------------------|
--5-5-5-5-5-5-5-5-5-5-5-5-5-5-5-5-|--8-8-8-8-8-8-8-8-8-8-8-8-8-8-8-8-|
----------------------------------|----------------------------------|
--3-3-3-3-3-3-3-3-3-3-3-3-3-3-3-3-|--6-6-6-6-6-6-6-6-6-6-6-6-6-6-6-6-|
----------------------------------|----------------------------------|


--------------------------------------------------|
--------------------------------------------------|
--10-10-10-10-10-10-10-10-10-10-10-10-10-10-10-10-|
--------------------------------------------------|
---8--8--8--8--8--8--8--8--8--8--8--8--8--8--8--8-|
--------------------------------------------------|



/Chorus - 2nd guitar/
----------------------------------|----------------------------------|
--5-5-5-5-5-5-5-5-5-5-5-5-5-5-5-5-|--8-8-8-8-8-8-8-8-8-8-8-8-8-8-8-8-|
--5-5-5-5-5-5-5-5-5-5-5-5-5-5-5-5-|--8-8-8-8-8-8-8-8-8-8-8-8-8-8-8-8-|
--5-5-5-5-5-5-5-5-5-5-5-5-5-5-5-5-|--8-8-8-8-8-8-8-8-8-8-8-8-8-8-8-8-|
--3-3-3-3-3-3-3-3-3-3-3-3-3-3-3-3-|--6-6-6-6-6-6-6-6-6-6-6-6-6-6-6-6-|
----------------------------------|----------------------------------|


--------------------------------------------------|
--10-10-10-10-10-10-10-10-10-10-10-10-10-10-10-10-|
--10-10-10-10-10-10-10-10-10-10-10-10-10-10-10-10-|
--10-10-10-10-10-10-10-10-10-10-10-10-10-10-10-10-|
---8--8--8--8--8--8--8--8--8--8--8--8--8--8--8--8-|
--------------------------------------------------|

/Chorus - solo guitar/
------------------8--6~--|--~-------------------------|-------------------|
-------------------------|-------8--6~--~-------------|-------------------|
--5~--------~--5---------|-------------------8s--10~--|--~----------------|
-------------------------|----------------------------|-------------------|
-------------------------|----------------------------|-------------------|
-------------------------|----------------------------|-------------------|


---------6------8------|-----------------8--6~--|---~------------------------|
--9----------------8~--|--~--------~------------|--------8--6--~-------------|
-----------------------|--------------5---------|-------------------8s--10~--|
-----------------------|------------------------|----------------------------|
-----------------------|------------------------|----------------------------|
-----------------------|------------------------|----------------------------|


---------------------|----------------------|-------------------|
---------------------|----------------------|-------------------|
--~------------LS----|--5~------------~\----|-------------------|
---------------------|----------------------|-------------------|
---------------------|----------------------|-------------------|
---------------------|----------------------|-------------------|



/Bridge/
|------------------------|-------------------------|
|------------------------|-------------------------|
|--------2---------------|--------2----------------|
|-----2--~---------------|-----2--~-----------3----|
|--0-----~---------------|--0-----~--------3--~----|
|-----------3~--~--------|-----------3~------------|

                           PM PM PM     
------------------------|------------------------|---------------------|
------------------------|------------------------|---------------------|
--------2---------------|------------------------|--2------------------|
-----2--~---------------|------------------------|--2------3--~--------|
--0-----~---------------|------------------------|--0------3--~--------|
-----------3~--~--------|--7--6--7--6~--~--------|---------3--~--------|



/Bridge - solo guitar/
-----------------------------------|-------------------------------|
-----------------------------------|-------------------------------|
-----------------------------------|-------------------------------|
--7s--9--9s--10--10s--12--12s--14--|--14~----14s--15--14s----15----|
-----------------------------------|-------------------------------|
--7s--9--9s--10--10s--12--12s--14--|--14~----14s--15--14s----15----|


                                        |---3---|       
--------------------------------|-----------------------------------|
--------------------------------|-----------------------------------|
--------------------------------|-----------------------------------|
--14~----12------12~------------|-----------------------------------|
-------------15---------15--14--|--15--14h-15p-14-12--11~--~--------|
--------------------------------|-----------------------------------|

     
-----------------------------|------------------------|
-----------------------------|------------------------|
--12b-------12b-------12b----|--~--12b~--~------------|
-----------------------------|------------------------|
-----------------------------|------------------------|
-----------------------------|------------------------|


--------------------------------|---------------------------17b--~--|
---------------10--12--13--12b--|---~--12--10--12~---~--17----------|
--~--~\----/9-------------------|-----------------------------------|
--------------------------------|-----------------------------------|
--------------------------------|-----------------------------------|
--------------------------------|-----------------------------------|


/Interlude/
---------------------|---------------------|---------------------|
---------------------|---------------------|---------------------|
--2------------------|---------------------|---------------------|
--2------3--~--------|--5------2--~--------|--3------0--~--------|
--0------3--~--------|--5------2--~--------|--3------0--~--------|
---------3--~--------|--5------2--~--------|--3------0--~--------|

  PM PM PM PM PM PM PM PM  
--------------------------|
--------------------------|
--------------------------|
--------------------------|
--------------------------|
--6--7--6--7--6--7--6--7--|


/Acoustic Bridge/
-------------------|------------------|-----1-------------|-----------3------1---|
-----1-----3--~----|-----4-----3--~---|--------1--3--~----|--------1-------------|
--------0----------|--------0---------|-------------------|-----1----------------|
-------------------|------------------|-------------------|----------------------|
--3----------------|--3---------------|--3----------------|--3-------------------|
-------------------|------------------|-------------------|----------------------|



/Outro solo/
--------------------20--18~--|--~----------------------------|
-----------------------------|-------20--18~--~--------------|
--17~--------~--17-----------|---------------------20s--22~--|
-----------------------------|-------------------------------|
-----------------------------|-------------------------------|
-----------------------------|-------------------------------|


-------------------|----------18------20-------|------------------20--18~--|
-------------------|--21------------------20~--|--~--------~---------------|
--~----------------|---------------------------|--------------17-----------|
-------------------|---------------------------|---------------------------|
-------------------|---------------------------|---------------------------|
-------------------|---------------------------|---------------------------|


---~---------------------------|---------------------|-----------------------|
--------20--18--~--------------|---------------------|-----------------------|
---------------------20s--22~--|--~------------LS----|--17~------------~\----|
-------------------------------|---------------------|-----------------------|
-------------------------------|---------------------|-----------------------|
-------------------------------|---------------------|-----------------------|


  |---3--|    |---3--|    |---3--|    |---3--|    |---3--|
--8h-11p-8----8h-11p-8----8h-11p-8----8h-11p-8----8h-11p-8-----|
-----------11----------11----------11----------11----------11--|
---------------------------------------------------------------|
---------------------------------------------------------------|
---------------------------------------------------------------|
---------------------------------------------------------------|


  |---3--|   
--8h-11p-8h-11p-8-----8h-11-11b--------|
------------------11-------------------|
---------------------------------------|
---------------------------------------|
---------------------------------------|
---------------------------------------|


--13b----13-11-10-11-10-11-13-11-10-11-10-8-|---------11-----------------|
--------------------------------------------|--11b-------11b-~--~--------|
--------------------------------------------|----------------------------|
--------------------------------------------|----------------------------|
--------------------------------------------|----------------------------|
--------------------------------------------|----------------------------|


            |--3--|       |--3--|       |--3-| 
------------8-------------8-------------8------11b--|
--8s-11b-~----11p-8h-11b----11p-8h-11b----11-8------|
----------------------------------------------------|
----------------------------------------------------|
----------------------------------------------------|
----------------------------------------------------|


  |--3--|  |--3--|  |--3-|   |---3--|  |--3-|   |--3--| |---3--|   |--3--| 
--8------------------------------------------------------------------------|
----11p-8----8h-11p-8----8h-11p-8h-11p-8----8h-11p-8----8h-11p-8h-11p-8----|
----------10----------10-----------------10----------10-----------------10-|
---------------------------------------------------------------------------|
---------------------------------------------------------------------------|
---------------------------------------------------------------------------|


  |---3--|  |--3--|  |---3--|  |--3--|  |--3-|   |--3--|  
----------------------------------------------------------------|
--8h-11p-8----8h-11p-8h-11p-8----8h-11p-8----8h-11p-8-----------|
-----------10-----------------10----------10----------10-10b----|
----------------------------------------------------------------|
----------------------------------------------------------------|
----------------------------------------------------------------|

-----------------------|-----------------------|
----------8------9-----|----------8------9-----|
--10-------------------|--10-------------------|
-----------------------|-----------------------|
-----------------------|-----------------------|
-----------------------|-----------------------|


---------------------------------||
--13-13-13----13-13-13-----------||
--12-12-12----12-12-12-----------||
--10-10-10----10-10-10-----------||
--10-10-10----10-10-10-----------||
---------------------------------||


Тональность:

Это должно быть в ТОП-листе! - Топ-лист композиций



Назад
Рекомендуем посмотреть другие песни исполнителя «Arch Enemy»:

  • Комменты Fb ()
  • Комменты ВК



Добавить в Избранное Браузера
Сохранить здесь Очистить


x

0


+
-

+
-

-

Авторизация





Зарегистрироваться

M

Дата и время

  • 02:25:41
     

Социальные ссылки


Наши приложения

  • Muzbank App Play Market
  • Muzbank Amazon App
  • Muzbank Bitcoin13igjuWJj2R4cHiyZqP7Q3ggVvfXE9j82Q