MUZBANK



A MOST COMPLETE BANK OF MUSIC INFORMATION

МУЗЫКАЛЬНО-ИНФОРМАЦИОННЫЙ БАНК







    AArch Enemy • Intermezzo Liberte (аккорды и текст - chords & lyrics)


    126

    Print

    Видео «Intermezzo Liberte (Arch Enemy)»

    Видео клипы к песне подбираются автоматически сайтом youtube. Возможны некоторые несоответствия клипов песне.

    ↑ Спрятать рекламу ↑





    Instrumental music 
    Gtr I (C F A# D# G C) - ′Acoustic (Steel)′
    Gtr II (C F A# D# G C) - ′Dist.′
    Gtr III (C F A# D# G C) - ′Dist.′
    
     Intro
      Q=115
     4/4
      Gtr I
      E E E E E E E E    E    E E E  E  E  E  E
    |---------0---0---|--------------0-----0----|
    |-------0-------0-|-----------0-----------0-|
    |---6-8-----6-----|-------6-8-------6-------|
    |-----------------|-------------------------|
    |-0---------------|--0----------------------|
    |-----------------|-------------------------|
    |
    | Gtr II
    | W                  H           E  E  E  E
    |-----------------|-------------------------|
    |-----------------|-12b14-------12-14-16-12-|
    |-----------------|-------------------------|
    |-----------------|-------------------------|
    |-----------------|-------------------------|
    |-----------------|-------------------------|
    
    
       E    E   E  E  E  E E  E       E E E E  E  E  E   E
    |-----------------0----0-------|-----------0-----0-----|
    |--------------0----------0----|--------0------------0-|
    |-------6---8--------6---------|----6-8-------6--------|
    |------------------------------|-----------------------|
    |--4---------------------------|--4--------------------|
    |------------------------------|-----------------------|
    |
    |  Q       +Q     Q.      S  S    H        E  E  E   E
    |------------------------------|-----------------------|
    |-16b17---(16)---16------14-16-|-14-------12-14-12-/12-|
    |------------------------------|-----------------------|
    |------------------------------|-----------------------|
    |------------------------------|-----------------------|
    |------------------------------|-----------------------|
    
    
      E E E E E  E E       E      E E E E E  E E      E
    |---------0----0---------|------------0----0--------|
    |-------0--------------0-|----------0-------------0-|
    |---6-8------6-----------|------6-8------6----------|
    |------------------------|--------------------------|
    |-0----------------------|----0---------------------|
    |------------------------|--------------------------|
    |
    |              |-3--|                      |-3--|
    | H       E  E S  S S  E   a  H       E  E S  S S E
    |------------------------|--------------------------|
    |-9-------9-12-9h12p9----|--------------------------|
    |---------------------11-|-9h11-------9-11-9h11p9---|
    |------------------------|------------------------9-|
    |------------------------|--------------------------|
    |------------------------|--------------------------|
    
    
         E E E E E   E E E    E  E E E E E E E
    |------------0-----0---|-----------0---0---|
    |----------0---------0-|---------0-------0-|
    |------6-8-------6-----|-----6-8-----6-----|
    |----------------------|-------------------|
    |----4-----------------|--4----------------|
    |----------------------|-------------------|
    |
    | a  H       H           +W
    |----------------------|-------------------|
    |----------------------|-------------------|
    |----------------------|-------------------|
    |-9h11-----------------|-------------------|
    |----------------------|-------------------|
    |------------7b9-------|-(7)---------------|
    
    
       E E  E  E  E E  E E    E  E E  E     E E E E
    |-------------0----0---|----------------0---0---|
    |----------0---------0-|----------0-----------0-|
    |----6--8-------6------|-----6-8----------6-----|
    |----------------------|------------------------|
    |--0-------------------|--0---------------------|
    |----------------------|------------------------|
    |
    |  Q    E  E  Q    Q      Q.      S  S  H
    |----------------------|------------------------|
    |----------------------|------------------------|
    |-----------------13---|-13------14-13-11-------|
    |-11---11-13-14--------|------------------------|
    |----------------------|------------------------|
    |----------------------|------------------------|
    
    
       E E  E  E  E E  E E    E  E  E  E  E E E E
    |-------------0----0---|--------------0---0----|
    |----------0---------0-|-----------0--------0--|
    |----6--8-------6------|-----6--8-------6------|
    |----------------------|-----------------------|
    |--4-------------------|--4--------------------|
    |----------------------|-----------------------|
    |
    |  Q    E  E  Q    Q      E  E  E  E  H
    |----------------------|-----------------------|
    |----------------------|-----------------------|
    |-----------------14---|-13h14-13h14-13--------|
    |-11---11-13-14--------|-----------------------|
    |----------------------|-----------------------|
    |----------------------|-----------------------|
    
    
       E E  E  E  E E  E E    E  E E  E     E E E E
    |-------------0----0---|----------------0---0---|
    |----------0---------0-|----------0-----------0-|
    |----6--8-------6------|-----6-8----------6-----|
    |----------------------|------------------------|
    |--0-------------------|--0---------------------|
    |----------------------|------------------------|
    |
    |                                       ~~
    |  Q    E  E  Q    Q      Q.      S  S  H
    |-----------------16---|-16------17p16-14-------|
    |-14---14-16-17--------|------------------------|
    |----------------------|------------------------|
    |----------------------|------------------------|
    |----------------------|------------------------|
    |----------------------|------------------------|
    
    
       E E  E  E  E E  E     E    E     H.      E
    |-------------0----0-------|-------------------|
    |----------0-------------0-|-------------------|
    |----6--8-------6----------|-------------------|
    |--------------------------|-------------------|
    |--4-----------------------|--4----------------|
    |--------------------------|-------------------|
    |
    |  Q    E  E  Q    Q          W
    |-----------------19pb21r==|=19pb21r===========|
    |-14---14-16-17------------|-------------------|
    |--------------------------|-------------------|
    |--------------------------|-------------------|
    |--------------------------|-------------------|
    |--------------------------|-------------------|
    
    
                Part I
               Q=100
      Gtr III
      W          W                  W
    |----------|-----------------|-------------------|
    |----------|-----------------|-------------------|
    |----------|-----------------|-------------------|
    |----------|-2---------------|--2----------------|
    |----------|-2---------------|--0----------------|
    |----------|-0---------------|-------------------|
    |
    | W          Q  E  E  Q   Q     Q.    S  S  H
    |----------|-----------------|-------------------|
    |----------|-------------12--|-12----13-12-10----|
    |----------|-9--9-11-12------|-------------------|
    |----------|-----------------|-------------------|
    |----------|-----------------|-------------------|
    |----------|-----------------|-------------------|
    
    
       W                    W
    |-------------------|--------------------|
    |-------------------|--------------------|
    |-------------------|--------------------|
    |--7----------------|--------------------|
    |--5----------------|---5----------------|
    |-------------------|---3----------------|
    |
    |  Q   E E  Q    Q      Q.    S  S  H
    |-------------------|--------------------|
    |--------------/13--|-/13----15-13-12----|
    |--------9-11-------|--------------------|
    |-12--12------------|--------------------|
    |-------------------|--------------------|
    |-------------------|--------------------|
    
    
       W                    W                  W                 H        H
    |--------------------|-------------------|---------------|-----------------|
    |--------------------|-------------------|---------------|-----------------|
    |--------------------|-------------------|---------------|-----------------|
    |--5-----------------|-------------------|-4-------------|---2-------------|
    |--3-----------------|--4----------------|-2-------------|---0--------2----|
    |--------------------|--2----------------|---------------|------------0----|
    |
    |  Q   E E Q   a  Q     Q.    S  S  H      Q  E E  Q  Q      Q.   S S H
    |--------------------|-------------------|---------------|-----------------|
    |-------------10h12--|-12----13p12-10----|---------------|-/10----9p7-9----|
    |--------7-9---------|-------------------|-8--8-9-11--8--|-----------------|
    |-10--10-------------|-------------------|---------------|-----------------|
    |--------------------|-------------------|---------------|-----------------|
    |--------------------|-------------------|---------------|-----------------|
    
    
     Part II
      Q=90
      W                    W                   W
    |-------------------|-------------------|-------|
    |-------------------|-------------------|-------|
    |-------------------|-------------------|-------|
    |-------------------|-------------------|--7----|
    |-------------------|--7----------------|--5----|
    |-------------------|--5----------------|-------|
    |
    |           ~~~~                           ~~
    | Q    Q    Q    Q     Q   E  E  Q   Q     W
    |-------------------|-------------------|-------|
    |---------[17]--15--|-13--13-15-17--13--|-------|
    |----/14------------|-------------------|-14----|
    |-------------------|-------------------|-------|
    |-------------------|-------------------|-------|
    |-------------------|-------------------|-------|
    
    
       W                    W
    |-------------------|--------------------|
    |-------------------|--------------------|
    |-------------------|--------------------|
    |-------------------|---5----------------|
    |--5----------------|---3----------------|
    |--3----------------|--------------------|
    |
    |  Q   E  E  Q   Q      Q.    S  S  H
    |-------------------|--------------------|
    |--------13-15------|-/18----17-15-17----|
    |-16--16--------16--|--------------------|
    |-------------------|--------------------|
    |-------------------|--------------------|
    |-------------------|--------------------|
    
    
       W                   W
    |-------------------|---------------------------|
    |-------------------|---------------------------|
    |-------------------|---------------------------|
    |-------------------|--4------------------------|
    |--3----------------|--2------------------------|
    |--1----------------|---------------------------|
    |
    |                                      |--3--|
    |  E.  E.  E  H        E.  E.  E   Q   E  E  E
    |-17--19--20-17-----|-17--19--20-/22--20-19-17--|
    |-------------------|---------------------------|
    |-------------------|---------------------------|
    |-------------------|---------------------------|
    |-------------------|---------------------------|
    |-------------------|---------------------------|
    
    
     Part III - Solo
       W                      W
    |----------------------|-----------------------------------|
    |----------------------|-----------------------------------|
    |----------------------|-----------------------------------|
    |--9-------------------|--9--------------------------------|
    |--7-------------------|--7--------------------------------|
    |----------------------|-----------------------------------|
    |
    |  ~~~                                                   TP
    |                                  |--3--|
    |  H.       E     S  S    T  T  T  T  T  T  H     +S. E  E
    |-19-------19b20-19-17-|-20-17--------------------------20-|
    |----------------------|-------18-15h18p15-----------------|
    |----------------------|-------------------16----(16)------|
    |----------------------|-----------------------------------|
    |----------------------|-----------------------------------|
    |----------------------|-----------------------------------|
    
    
       W
    |------------------------------|
    |------------------------------|
    |------------------------------|
    |------------------------------|
    |--7---------------------------|
    |--5---------------------------|
    |
    |  TP  TP TP  TP TP
    |  Q   E  Q   E  E  T  T  T  T
    |-20--17-20--17-20-17-20-17----|
    |---------------------------20-|
    |------------------------------|
    |------------------------------|
    |------------------------------|
    |------------------------------|
    
    
       W
    |-------------------------------------------------------|
    |-------------------------------------------------------|
    |-------------------------------------------------------|
    |--7----------------------------------------------------|
    |--5----------------------------------------------------|
    |-------------------------------------------------------|
    |
    |                                                  ~~
    |  T  T  T  T  T  T  T  T  T  T  T  T  T  T  T  T  H
    |----17-20-------------17-20-17-------------------------|
    |-17-------20-19-17-16----------20-19-17-16-17----------|
    |----------------------------------------------17-14----|
    |-------------------------------------------------------|
    |-------------------------------------------------------|
    |-------------------------------------------------------|
    
    
       W
    |-------------------------------------------------------------------|
    |-------------------------------------------------------------------|
    |-------------------------------------------------------------------|
    |-------------------------------------------------------------------|
    |--5----------------------------------------------------------------|
    |--3----------------------------------------------------------------|
    |
    |  TP
    |  Q.    T  T  T  T  T  T  T  T  T  T  T  T  T  T  T  T  T  T  T  T
    |-------------------------------------------------------------------|
    |-------------------------------------------------------------------|
    |-14----16-14-12-14-16-14-12-14-16-14-17-17-14-17-14-------14-------|
    |----------------------------------------------------15-12----15-12-|
    |-------------------------------------------------------------------|
    |-------------------------------------------------------------------|
    
    
       W
    |--------------------------------|
    |--------------------------------|
    |--------------------------------|
    |--5-----------------------------|
    |--3-----------------------------|
    |--------------------------------|
    |
    |  T  T  T  T  T  T  T  T  H.
    |--------------------------------|
    |--------------------------------|
    |--------------------------------|
    |-12-15-12----12-15-12-----------|
    |----------15----------15-12-----|
    |--------------------------------|
    
    
       W                                W
    |--------------------------------|--------------------------------|
    |--------------------------------|--------------------------------|
    |--------------------------------|--------------------------------|
    |--------------------------------|--4-----------------------------|
    |--3-----------------------------|--2-----------------------------|
    |--1-----------------------------|--------------------------------|
    |
    |                             ~~                               ~~
    |  |--3--|  |--3--|  |--3--|        |--3--|  |--3--|  |--3--|
    |  E  E  E  E  E  E  E  E  E  Q     E  E  E  E  E  E  E  E  E  Q
    |-17-19-20-----------------------|-17-19-20-----------------------|
    |----------16-17-19--------------|----------16-17-19-14-16-17-16--|
    |-------------------14-16-17-16--|--------------------------------|
    |--------------------------------|--------------------------------|
    |--------------------------------|--------------------------------|
    |--------------------------------|--------------------------------|
    
    
       W                +W
    |-----------------|---------------------------------|
    |-----------------|---------------------------------|
    |-----------------|---------------------------------|
    |-----------------|---------------------------------|
    |--7--------------|-(7)-----------------------------|
    |-----------------|---------------------------------|
    |
    |  H.       E.  S    S   S  S  S  S  S  S  S  H
    |-17-------19--17-|-16--17-16-17-16-17-16-17-16\----|
    |-----------------|---------------------------------|
    |-----------------|---------------------------------|
    |-----------------|---------------------------------|
    |-----------------|---------------------------------|
    |-----------------|---------------------------------|
    
    
     Part IV
      W                  W
    |-----------------|-------------------|
    |-----------------|-------------------|
    |-----------------|-------------------|
    |-----------------|-------------------|
    |-----------------|-------------------|
    |-----------------|-------------------|
    |
    | Q  E  E  Q   Q     Q.    S  S  H
    |-----------------|-------------------|
    |-------------12--|-12----13-12-10----|
    |-9--9-11-12------|-------------------|
    |-----------------|-------------------|
    |-----------------|-------------------|
    |-----------------|-------------------|
    
    
       W                     W
    |---------------------|---------------------|
    |---------------------|---------------------|
    |---------------------|---------------------|
    |---------------------|---------------------|
    |---------------------|---------------------|
    |---------------------|---------------------|
    |
    |  Q   E E  Q   Q        Q.      S  S  H
    |---------------------|---------------------|
    |--------------12b13r=|=12b13---12-10-12----|
    |--------9-11---------|---------------------|
    |-12--12--------------|---------------------|
    |---------------------|---------------------|
    |---------------------|---------------------|
    
    
       W                    W                  W
    |--------------------|-------------------|---------------|
    |--------------------|-------------------|---------------|
    |--------------------|-------------------|---------------|
    |--------------------|-------------------|---------------|
    |--------------------|-------------------|---------------|
    |--------------------|-------------------|---------------|
    |
    |  Q   E E Q   a  Q     Q.    S  S  H      Q  E E  Q  Q
    |--------------------|-------------------|---------------|
    |-------------10h12--|-12----13p12-10----|---------------|
    |--------7-9---------|-------------------|-8--8-9-11--8--|
    |-10--10-------------|-------------------|---------------|
    |--------------------|-------------------|---------------|
    |--------------------|-------------------|---------------|
    
    
     Outro
       Q      Q      Q      Q        W              +W
    |-----------------------------|--------------|------------------------------------|
    |-----------------------------|--------------|------------------------------------|
    |-----------------------------|--------------|------------------------------------|
    |--9------8------7------6-----|--5-----------|--(5)-------------------------------|
    |--7------6------5------4-----|--3-----------|--(3)-------------------------------|
    |-----------------------------|--------------|------------------------------------|
    
    --------------------|
    --------------------|
    --------------------|
    --------------------|
    --------------------|
    --------------------|
    
    
    |
    |  ~~~~~~~~~~~~~~~~~~~~~~~~~~    TP
    |  Q      Q      Q      Q        W              +E       +E      +E      +E      +E      +E   +Q
    |-----------------------------|-22b24--------|-(22)pb24r(22)b24r(22)b24r(22)b24r--|
    |-15b17--17b19--19b20--20b22--|--------------|------------------------------------|
    |-----------------------------|--------------|------------------------------------|
    |-----------------------------|--------------|------------------------------------|
    |-----------------------------|--------------|------------------------------------|
    |-----------------------------|--------------|------------------------------------|
    
    (22)b24r(22)-(22)b25--|
    ----------------------|
    ----------------------|
    ----------------------|
    ----------------------|
    ----------------------|
    
    
      W                        +W
    |------------------------|------------------------------------|
    |------------------------|------------------------------------|
    |------------------------|------------------------------------|
    |-4----------------------|-(4)--------------------------------|
    |-2----------------------|-(2)--------------------------------|
    |------------------------|------------------------------------|
    |
    |                                    |--3--|
    | Q    Q   E  E  S  S  E    E     S  T  T  T  E  T  T  H    S
    |------------------------|------------------------------------|
    |----/16--17-19-17-19-20-|-20b22-20-19h20p19-17-19-17-16------|
    |------------------------|------------------------------------|
    |------------------------|------------------------------------|
    |------------------------|------------------------------------|
    |------------------------|------------------------------------|
    
    
                 H.=H                                         Q=85
      W          +W                                           +W
    |----------|--------------------------------------------|--------------*|
    |----------|--------------------------------------------|--------------*|
    |----------|--------------------------------------------|--------------*|
    |----------|--------------------------------------------|--------------*|
    |-2--------|-(2)----------------------------------------|-(2)----------*|
    |-0--------|-(0)----------------------------------------|-(0)----------*|
    |
    |                 |--3--|        |--3--|        |--3--|
    | W           E   S  S  S  E  E  S  S  S  E  E  S  S  S    E  E  H.
    |----------|-20--17h20p17----19-15h19p15----17-14h17p14-|--------------*|
    |----------|--------------18-------------17-------------|-16----17-----*|
    |----------|--------------------------------------------|--------------*|
    |----------|--------------------------------------------|--------------*|
    |----------|--------------------------------------------|--------------*|
    |----------|--------------------------------------------|--------------*|
    
    
    Duration Legend
    ---------------
    W - whole; H - half; Q - quarter; E - 8th; S - 16th; T - 32nd; X - 64th; a - acciaccatura
    + - note tied to previous; . - note dotted; .. - note double dotted
    Uncapitalized letters represent notes that are staccato (1/2 duration)
    Irregular groupings are notated above the duration line
    Duration letters will always appear directly above the note/fret number it represents the
    duration for.  Duration letters with no fret number below them represent rests.  Multi-
    bar rests are notated in the form Wxn, where n is the number of bars to rest for.  Low
    melody durations appear below the staff
    
    Tablature Legend
    ----------------
     h   - hammer-on
     p   - pull-off
     b   - bend
     pb  - pre-bend
     r   - bend release (if no number after the r, then release immediately)
     /\  - slide into or out of (from/to "nowhere")
     s   - legato slide
     S   - shift slide
      - natural harmonic
    [n]  - artificial harmonic
    n(n) - tapped harmonic
     ~   - vibrato
     tr  - trill
     T   - tap
     TP  - trem. picking
     PM  - palm muting
    \n/  - tremolo bar dip; n = amount to dip
     \n  - tremolo bar down
     n/  - tremolo bar up
    /n\  - tremolo bar inverted dip
     =   - hold bend; also acts as connecting device for hammers/pulls
       - volume swell (louder/softer)
     x   - on rhythm slash represents muted slash
     o   - on rhythm slash represents single note slash
    
    Misc Legend
    -----------
     |  - bar
    ||  - double bar
    ||o - repeat start
    o|| - repeat end
    *|  - double bar (ending)
     :  - bar (freetime)
     $  - Segno
     &  - Coda
    Tempo markers -  = BPM(8/16=s8/s16), where s8 = swing 8ths, s16 = swing 16ths
    

    Тональность:

    Это должно быть в ТОП-листе! - Топ-лист композиций



    Назад
    Рекомендуем посмотреть другие песни исполнителя «Arch Enemy»:

    • Комменты Fb ()
    • Комменты ВК



    Добавить в Избранное Браузера
    Сохранить здесь Очистить


    x

    0


    +
    -

    +
    -

    -

    Авторизация





    Зарегистрироваться

    M

    Дата и время

    • 05:39:33
       

    Социальные ссылки


    Наши приложения

    • Muzbank App Play Market
    • Muzbank Amazon App
    • Muzbank Bitcoin13igjuWJj2R4cHiyZqP7Q3ggVvfXE9j82Q