MUZBANK



A MOST COMPLETE BANK OF MUSIC INFORMATION

МУЗЫКАЛЬНО-ИНФОРМАЦИОННЫЙ БАНК





AArch Enemy • Marching On A Dead End Road (аккорды и текст - chords & lyrics)


545

Print

Видео «Marching On A Dead End Road (Arch Enemy)»

Видео клипы к песне подбираются автоматически сайтом youtube. Возможны некоторые несоответствия клипов песне.

↑ Спрятать рекламу ↑





Arch Ememy  Marching On A Dead End Road tabbed out by LLOYD MUNROE
 
 My band whats to cover this song and i realised the tab for it 
 wasnt on the net so i tabbed it out. Enjoy

 :--------0--:---------0--:---------0-:
 :----6------:-----6------:-----6-----:
 :--7---7----:--7---------:--7--------:
 :--0--------:--0----8----:--0----5---:
 :-----------:------------:-----------:
 :-----------:------------:-----------:
  repeat this section listen to the song for the changes in time        

 :------------------------------------------  
 :-18-17-18---17-18-17---17-15h17p15--13-b14  
 :------------------------------------------
 :------------------------------------------
 :------------------------------------------
 :------------------------------------------

 :------------------------------------------
 :------------------------------------------
 :-------14-12----------12-10---------------
 :-12-14---------12-14----------------------
 :------------------------------------------
 :------------------------------------------

 :------------------------------------------
 :-15--13-12-12---13--11-10-10---11--9-8-8--
 :------------------------------------------
 :------------------------------------------
 :------------------------------------------
 :------------------------------------------

 :------------------------------------------
 :-9--7-5-5---7--5-4-4---6--4-3-3-----------
 :---------------------------------7--------
 :------------------------------------------
 :------------------------------------------
 :------------------------------------------

 The obove section is played higher the second time with two guitars

 :--------------------------------------------
 :-12--14-15--15-14-15--14--15-17--14-15-17-15
 :--------------------------------------------
 :--------------------------------------------
 :--------------------------------------------
 :--------------------------------------------

 :------------------------------------------
 :-17--17---18--18--------------------------
 :------------------------------------------
 :------------------------------------------
 :------------------------------------------
 :------------------------------------------
 

It then goes into another section which i aint worked out yet but
im sure one of the riffs goes summit like this:

:--------------------------------------------------------------:
:--------------------------------------------------------------:
:--------------------------------------------------------------:
:-17----15--14-15----10---12-----------------------------------:
:--------------------------------------------------------------:
:--------------------------------------------------------------:






II variant:

Intro/Solo

Guitar I
      c1           c2          c3         c4
|----------0-|---------0-|---------0-|-------0-|
|----6-------|----6------|----6------|----8----|
|-7-----7----|-7-----7---|-5-----5---|-6-------|
|-0----------|-8---------|-----------|---------|
|------------|-----------|-----------|---------|
|------------|-----------|-----------|---------|

Guitar II
       (c1)                                      (c2)               (c3)
|-----13-12-13----12-13-12----12-10h12p12-8-10-8^s10------------------------|
|-(12)--------------------------------------------------------10-8-------8-6|
|-(12)-----------------------------------------------------10----------9----|
|-(12)--------------------------------------------------12----------10------|
|---------------------------------------------------------------------------|
|---------------------------------------------------------------------------|

Guitar II
  x3(c4)                     (c1)
|-------0-|-10p8-6p5-8p6p5-6p5--5------------------|
|----14---|(7)------------8---86-8p6p58p6p5-65-----|
|-12------|(7)-----------------------------7--75s7-|
|---------|----------------------------------------|
|---------|----------------------------------------|
|---------|----------------------------------------|

Guitar II
   (previous descending scale played over this in sync)(c1)
|-1312p10--1210-----10--------------------------------------|
|-10-----13----13p11--1311p1013p1110--11p10----10-----------|
|-----------------------------------12-----1210--h1210910s/-|
|-----------------------------------------------------------|
|-----------------------------------------------------------|
|-----------------------------------------------------------|

Guitar II
   (c2)               (c3)       (c1)
|-6-8-8s10--10p8h10---8-10-10s12-9--10-s12-10-12-12--12s13-13^-|
|-6-------------------8----------8-----------------------------|
|-7-------------------9----------9-----------------------------|
|---------------------------------------------------------------|
|---------------------------------------------------------------|
|---------------------------------------------------------------|

Chorus / Outro x2

Guitar I
     (o1)         (o2)          (03)        (04)
|------------|------------|------------|------------|
|------------|------------|------------|------------|
|-------7----|-------5----|-------3----|-------6----|
|----7-----7-|----5-----5-|----3-----3-|----5-----5-|
|-5----------|-3----------|-1----------|-4----------|
|------------|------------|------------|------------|

Guitar II
           (o1)                            x2       (o2)
|---s3-1-0--0-1-------------------s3-1-|0h1-----|-1-------|
|-s3------------1-3-0--1-0h1p0---------|----3---|---0---0-|
|-----------------------------0-2------|------2-|-----2---|
|--------------------------------------|--------|---------|
|--------------------------------------|--------|---------|
|--------------------------------------|--------|---------|

Guitar II
         (o3)                    (o2)           (04)            end 2nd time
|----3-1--0-1--------------------s3-1---0h1-----0h3---------3---|---------|
|-------------1-3---------------------3-----3---2---2-------2---|--8------|
|-s3--------------3--5-3h5p3p0-2--------------2-2-----2---2---2-|--7------|
|-------------------------------------------------------0-------|--7------|
|---------------------------------------------------------------|--5------|
|---------------------------------------------------------------|---------|
 

Тональность:

Это должно быть в ТОП-листе! - Топ-лист композиций



Назад
Рекомендуем посмотреть другие песни исполнителя «Arch Enemy»:

  • Комменты Fb ()
  • Комменты ВК



Добавить в Избранное Браузера
Сохранить здесь Очистить


x

0


+
-

+
-

-

Авторизация





Зарегистрироваться

M

Дата и время

  • 02:26:57
     

Социальные ссылки


Наши приложения

  • Muzbank App Play Market
  • Muzbank Amazon App
  • Muzbank Bitcoin13igjuWJj2R4cHiyZqP7Q3ggVvfXE9j82Q