MUZBANK



A MOST COMPLETE BANK OF MUSIC INFORMATION

МУЗЫКАЛЬНО-ИНФОРМАЦИОННЫЙ БАНК





AArch Enemy • The Eagle Flies Alone (аккорды и текст - chords & lyrics)


677

Print

Видео «The Eagle Flies Alone (Arch Enemy)»

Видео клипы к песне подбираются автоматически сайтом youtube. Возможны некоторые несоответствия клипов песне.

↑ Спрятать рекламу ↑





When I was born the seed was sown
I will not obey, my life is my own
Battle rose, which do enslave me
Exposed lies that enrage me

I don′t believe in heaven, I don′t believe in hell
Never joined the herd, could not adjust well
Slave and master, it′s not for me
I chose my own path, set myself free

I, I go my own way
I swim against the stream
Forever I will fight the powers that be

I, I go my own way
I swim against the stream
Forever I will fight the pοwers that be
The eagle flies alone

Reject the system that dictates the norm
This world is full of lies and deceit
I ask my own betrayal, cut so deep
Suffered defeat only to rise again

I, I go my own way
I swim against the stream
Forever I will fight the powers that be
I, I go my own way
I swim against the stream
Forever I will fight the powers that be
The eagle flies alone

Alone!

I, I go my own way
I swim against the stream
Forever I will fight the powers that be
I, I go my own way
I swim against the stream
Forever I will fight the powers that be
The eagle flies alone


[GUITAR TAB] Dropped 6th string

Intro
                                                      |--3--|       
C ||------------------------0h1--|-----0-----------0--------------|
G ||-----------0-----1-----------|-----------3--------3h-5h-3s-1--|
D#||-----2-----------------------|--------------------------------|
A#||-----------------------------|--------------------------------|
F ||--0-----0-----0-----0--------|--0-----0-----0-----------------|
B ||-----------------------------|--------------------------------|

 
--------------------------|--------------------------|
-----3-----3-----3-----3--|-----3-----3-----3-----3--|
--------------------------|--------------------------|
--------------------------|--------------------------|
--------------------------|--------------------------|
--4-----4-----4-----4-----|--5-----5-----5-----5-----|




Riff 1 

  PM    PM    PM PM PM PM PM PM    PM    PM    PM PM PM PM PM PM  
--------------------------------|--------------------------------|
--------------------------------|--------------------------------|
--------------------------------|--------------------------------|
-----2-----2--------------------|-----4-----4--------------------|
--------------------------------|--------------------------------|
--1-----1-----1--1--1--1--1--1--|--1-----1-----1--1--1--1--1--1--|


  PM    PM    PM PM PM PM PM PM    PM    PM    PM PM PM PM PM PM  
--------------------------------|--------------------------------|
--------------------------------|--------------------------------|
-----0-----0--------------------|-----2-----2--------------------|
--------------------------------|--------------------------------|
--------------------------------|--------------------------------|
--1-----1-----1--1--1--1--1--1--|--1-----1-----1--1--1--1--1--1--|


  PM    PM    PM PM PM PM PM PM    PM    PM    PM PM PM PM PM PM 
--------------------------------|--------------------------------|
--------------------------------|--------------------------------|
--------------------------------|--------------------------------|
-----2-----2--------------------|-----4-----4--------------------|
--------------------------------|--------------------------------|
--1-----1-----1--1--1--1--1--1--|--1-----1-----1--1--1--1--1--1--|


  PM    PM    PM PM PM PM PM PM    PM    PM    PM PM PM PM PM PM 
--------------------------------|--------------------------------|
--------------------------------|--------------------------------|
-----0-----0--------------------|-----2-----2--------------------|
--------------------------------|--------------------------------|
--------------------------------|--------------------------------|
--1-----1-----1--1--1--1--1--1--|--1-----1-----1--1--1--1--1--1--|


  PM    PM    PM PM PM PM PM PM    PM    PM    PM PM PM PM PM PM  
--------------------------------|--------------------------------|
--------------------------------|--------------------------------|
--------------------------------|--------------------------------|
-----2-----2--------------------|-----4-----4--------------------|
--------------------------------|--------------------------------|
--1-----1-----1--1--1--1--1--1--|--1-----1-----1--1--1--1--1--1--|


  PM    PM    PM PM PM PM PM PM    PM    PM    PM PM PM PM PM PM  
--------------------------------|--------------------------------|
--------------------------------|--------------------------------|
-----0-----0--------------------|-----2-----2--------------------|
--------------------------------|--------------------------------|
--------------------------------|--------------------------------|
--1-----1-----1--1--1--1--1--1--|--1-----1-----1--1--1--1--1--1--|


  PM    PM    PM PM PM PM PM PM    PM    PM    PM PM PM PM PM PM  
--------------------------------|--------------------------------|
--------------------------------|--------------------------------|
--------------------------------|--------------------------------|
-----2-----2--------------------|-----4-----4--------------------|
--------------------------------|--------------------------------|
--1-----1-----1--1--1--1--1--1--|--1-----1-----1--1--1--1--1--1--|


  PM    PM    PM PM PM PM PM PM    PM    PM    PM PM PM PM PM PM  
--------------------------------|--------------------------------|
--------------------------------|--------------------------------|
-----0-----0--------------------|-----2-----2--------------------|
--------------------------------|--------------------------------|
--------------------------------|--------------------------------|
--1-----1-----1--1--1--1--1--1--|--1-----1-----1--1--1--1--1--1--|



Chorus             
      
|-------------------|-------------------|-------------------|--------------------|
|-------------------|-------------------|-------------------|--------------------|
|-------------------|--0----------------|-------------------|--2--------0--------|
|--3----------------|--0----------------|--2----------------|--2--------0--------|
|--3----------------|-------------------|--2----------------|--0-----------------|
|--2----------------|--4----------------|--1----------------|-----------4--------|

                
-------------------|-------------------|-------------------|-------------------|
-------------------|-------------------|-------------------|-------------------|
-------------------|--0----------------|--2----------------|-------------------|
--3----------------|--0----------------|--2----------------|-------------------|
--3----------------|-------------------|--0----------------|--3----------------|
--2----------------|--4----------------|-------------------|--4----------------|

    
-------------------|-------------------|-------------------|
-------------------|-------------------|-------------------|
-------------------|--0----------------|-------------------|
--3----------------|--0----------------|--2----------------|
--3----------------|-------------------|--2----------------|
--2----------------|--4----------------|--1----------------|

             
--------------------|-------------------|-------------------|
--------------------|-------------------|-------------------|
--2--------0--------|-------------------|--0----------------|
--2--------0--------|--3----------------|--0----------------|
--0-----------------|--3----------------|-------------------|
-----------4--------|--2----------------|--4----------------|

 
-------------------|-------------------|
-------------------|-------------------|
--2----------------|-------------------|
--2----------------|-------------------|
--0----------------|--3----------------|
-------------------|--4----------------|


Solo Chorus (Gtr. II)

|----------------------------|
|----------------------------|
|--8g10--------10---12---13--|
|----------------------------|
|----------------------------|
|----------------------------|
|----------------------------|


--------------------------|------------------------|
--11----------------------|------------------------|
--------13----12----10----|--9--------9---10---12--|
--------------------------|------------------------|
--------------------------|------------------------|
--------------------------|------------------------|
--------------------------|------------------------|


                         |---3---|       
------------------------------------|--------------------------|
--13----11--------------------------|--------------------------|
--------------13----12--12h-13p-12s-|--10--------10---12---13--|
------------------------------------|--------------------------|
------------------------------------|--------------------------|
------------------------------------|--------------------------|
------------------------------------|--------------------------|


                                  |---3---|   
--------------------------|--------------------------------|
--11----------------------|--------------------------------|
--------13----12----10----|--12--12h-13p-12s-10------------|
--------------------------|--------------------------------|
--------------------------|--------------------------------|
--------------------------|--------------------------------|
--------------------------|--------------------------------|



-------------------------|----------------------------|
--13------13~------------|----------------------------|
------10-----------------|--8g10--------10---12---13--|
-------------------------|----------------------------|
-------------------------|----------------------------|
-------------------------|----------------------------|
-------------------------|----------------------------|



--------------------------|------------------------|
--11----------------------|------------------------|
--------13----12----10----|--9--------9---10---12--|
--------------------------|------------------------|
--------------------------|------------------------|
--------------------------|------------------------|
--------------------------|------------------------|


                         |---3---|      
------------------------------------|--------------------------|
--13----11--------------------------|--------------------------|
--------------13----12--12h-13p-12s-|--10--------10---12---13--|
------------------------------------|--------------------------|
------------------------------------|--------------------------|
------------------------------------|--------------------------|
------------------------------------|--------------------------|


                                  |---3---|           
--------------------------|--------------------------------|
--11----------------------|--------------------------------|
--------13----12----10----|--12--12h-13p-12s-10------------|
--------------------------|--------------------------------|
--------------------------|--------------------------------|
--------------------------|--------------------------------|
--------------------------|--------------------------------|

            
-------------------------|
--13------13~------------|
------10-----------------|
-------------------------|
-------------------------|
-------------------------|
-------------------------|




Тональность:

Это должно быть в ТОП-листе! - Топ-лист композиций



Назад
Рекомендуем посмотреть другие песни исполнителя «Arch Enemy»:

  • Комменты Fb ()
  • Комменты ВК



Добавить в Избранное Браузера
Сохранить здесь Очистить


x

0


+
-

+
-

-

Авторизация





Зарегистрироваться

M

Дата и время

  • 06:39:25
     

Социальные ссылки


Наши приложения

  • Muzbank App Play Market
  • Muzbank Amazon App
  • Muzbank Bitcoin13igjuWJj2R4cHiyZqP7Q3ggVvfXE9j82Q