MUZBANK


МУЗЫКАЛЬНО-ИНФОРМАЦИОННЫЙ БАНК





AArch Enemy • The World Is Yours (аккорды и текст - chords & lyrics)


295

Print

Видео «The World Is Yours (Arch Enemy)»

Видео клипы к песне подбираются автоматически сайтом youtube. Возможны некоторые несоответствия клипов песне.

↑ Спрятать рекламу ↑





Rise into the light and fade to the night
Sick of being told how to run your life
Their rules, they′re fools
Empty words they promise so much
The present status quo remains untouched

If you want the world
Use your mind
Take control
Feel the strength
Rise from within
If you really want it, the world is yours

Every empire was raised by the slain
Built through the ages you can destroy it in a day
Turn the page, unleash your rage
Burn your golden cage and walk away
On your path toward ultimate power

If you want the world
Use your mind
Take control
Feel the strength
Rise from within
If you really want it, the world is yours

Straining at the leash
Foaming at the mouth
No more subservience
Justice will be done

There was only so much
You could take
There was only so much
You could tolerate
When the bough breaks
The empire will fall

If you want the world
Use your mind
Take control
Feel the strength
Rise from within
If you really want it, the world is yours

If you want the world
Use your mind
Take control
Feel the strength
Rise from within
If you really want it, the world is yours




      S S S S S S S S S S S S S S S S    S S S S S S S S S S S S  S  S  S  S  
C ||----------------------------------|--------------------------------------|
G ||----------------------------------|--------------------------------------|
D#||----------------------------------|--------------------------------------|
A#||----------------------------------|--------------------------------------|
F ||----------7-7-7-7---------7-7-7-7-|----------7-7-7-7-8-8-8-8-10-10-10-10-|
C ||--0-0-0-0---------0-0-0-0---------|--0-0-0-0-----------------------------|


  S S S S S S S S S S S S S S S S    S S S S S S S S  S  S  S  S S S S S  
----------------------------------|--------------------------------------|
----------------------------------|--------------------------------------|
----------------------------------|--------------------------------------|
----------------------------------|------------------10-10-10-10---------|
----------7-7-7-7---------7-7-7-7-|----------7-7-7-7-------------8-8-8-8-|
--0-0-0-0---------0-0-0-0---------|--0-0-0-0-----------------------------|


  S S S S S S S S S S S S S S S S    S S S S S S S S S S S S  S  S  S  S  
----------------------------------|--------------------------------------|
----------------------------------|--------------------------------------|
----------------------------------|--------------------------------------|
----------------------------------|--------------------------------------|
----------7-7-7-7---------7-7-7-7-|----------7-7-7-7-8-8-8-8-10-10-10-10-|
--0-0-0-0---------0-0-0-0---------|--0-0-0-0-----------------------------|


   S  S  S  S  S  S  S  S  S  S  S  S  S  S  S  S  
--------------------------------------------------|
--------------------------------------------------|
--------------------------------------------------|
--------------------------------------------------|
--13-13-13-13-13-13-13-13-13-13-13-13-13-13-13-13-|
--------------------------------------------------|


                                                PM    PM    PM PM PM     
   S  S  S  S  S  S  S  S S S S S S S S S    E  E  E  E  E  S  S  E  E   
------------------------------------------|-----------------------------|
------------------------------------------|-----------------------------|
------------------------------------------|-----------------------------|
------------------------------------------|--------------6-----------6--|
--12-12-12-12-12-12-12-12-6-6-6-6-6-6-6-6-|--7-----8--------------------|
------------------------------------------|-----0-----0-----0--0--0-----|


  PM    PM    PM PM PM PM PM        PM    PM    PM PM PM      
  E  E  E  E  E  E  S  S  E      E  E  E  E  E  S  S  E   E   
-----------------------------|-------------------------------|
-----------------------------|-------------------------------|
-----------------------------|-------------------------------|
-----7-----9-----------------|--10-----9-----7---------------|
-----------------------------|---------------------------10--|
--0-----0-----0--0--0--0--0--|------0-----0-----0--0--0------|


  PM    PM    PM PM PM PM PM       PM    PM    PM PM PM     
  E  E  E  E  E  E  S  S  E     E  E  E  E  E  S  S  E  E   
-----------------------------|-----------------------------|
-----------------------------|-----------------------------|
-----------------------------|-----------------------------|
-----------------------------|--------------6-----------6--|
-----8-----7-----------------|--7-----8--------------------|
--0-----0-----0--0--0--0--0--|-----0-----0-----0--0--0-----|


  PM    PM    PM PM PM PM PM        PM    PM    PM PM PM      
  E  E  E  E  E  E  S  S  E      E  E  E  E  E  S  S  E   E   
-----------------------------|-------------------------------|
-----------------------------|-------------------------------|
-----------------------------|-------------------------------|
-----7-----9-----------------|--10-----9-----7---------------|
-----------------------------|---------------------------10--|
--0-----0-----0--0--0--0--0--|------0-----0-----0--0--0------|


  PM    PM    PM PM PM PM PM                                           
  E  E  E  E  E  E  S  S  E     W                   H        H         
-----------------------------|-------------------|--------------------|
-----------------------------|-------------------|--------------------|
-----------------------------|--5----------------|-----------7--------|
-----------------------------|--5----------------|--5--------7--------|
-----8-----7-----------------|--3----------------|--5--------5--------|
--0-----0-----0--0--0--0--0--|-------------------|--3-----------------|


     PM     PM    PM PM PM       PM     PM        PM PM PM                      
  E  E   E  E  E  S  S  E  E     E   E  E  E   E  E  E  E     W                 
------------------------------|----------------------------|-------------------|
------------------------------|----------------------------|-------------------|
------------------------------|----------------------------|--5----------------|
--9-----10-----9-----------9--|-----10-----7S--9-----------|--5----------------|
--7------8-----7-----------7--|------8-----5S--7-----------|--3----------------|
-----0------0-----0--0--0-----|--0------0---------0--0--0--|-------------------|


                          PM     PM    PM PM PM     
  H        H           E  E   E  E  E  S  S  E  E   
--------------------|------------------------------|
--------------------|------------------------------|
-----------7--------|------------------------------|
--5--------7--------|--9-----10-----9-----------9--|
--5--------5--------|--7------8-----7-----------7--|
--3-----------------|-----0------0-----0--0--0-----|


  PM     PM        PM PM PM                                           
  E   E  E  E   E  E  E  E     W                   H        H         
----------------------------|-------------------|--------------------|
----------------------------|-------------------|--------------------|
----------------------------|--5----------------|-----------7--------|
-----10-----7S--9-----------|--5----------------|--5--------7--------|
------8-----5S--7-----------|--3----------------|--5--------5--------|
--0------0---------0--0--0--|-------------------|--3-----------------|


     PM     PM    PM PM PM       PM     PM        PM PM PM                      
  E  E   E  E  E  S  S  E  E     E   E  E  E   E  E  E  E     W                 
------------------------------|----------------------------|-------------------|
------------------------------|----------------------------|-------------------|
------------------------------|----------------------------|--5----------------|
--9-----10-----9-----------9--|-----10-----7S--9-----------|--5----------------|
--7------8-----7-----------7--|------8-----5S--7-----------|--3----------------|
-----0------0-----0--0--0-----|--0------0---------0--0--0--|-------------------|


                       PM PM PM PM PM PM PM PM    PM PM PM PM PM           
  H        H           E  E  E  E  E  E  E  E     E  E  E  E  E  E  E  E   
--------------------|--------------------------|--------------------------|
--------------------|--------------------------|--------------------------|
-----------7--------|--------------------------|--------------------------|
--5--------7--------|--------------------------|--------------------------|
--5--------5--------|--2--2--2--2--2--2--2--2--|--2--2--2--2--2-----------|
--3-----------------|--0--0--0--0--0--0--0--0--|--0--0--0--0--0-----------|


  PM PM PM PM PM PM PM PM PM PM PM PM PM PM PM PM  
  S  S  S  S  S  S  S  S  S  S  S  S  S  S  S  S   
--------------------------------------------------|
--------------------------------------------------|
--------------------------------------------------|
--------------------------------------------------|
--0--0--0--0--0--0--0--0--0--0--0--0--0--0--0--0--|
--------------------------------------------------|


  PM PM PM PM PM PM PM PM PM PM PM PM PM PM PM PM  
  S  S  S  S  S  S  S  S  S  S  S  S  S  S  S  S   
--------------------------------------------------|
--------------------------------------------------|
--------------------------------------------------|
--------------------------------------------------|
--2--2--2--2--2--2--2--2--2--2--2--2--2--2--2--2--|
--------------------------------------------------|


  PM PM PM PM PM PM PM PM PM PM PM PM PM PM PM PM  
  S  S  S  S  S  S  S  S  S  S  S  S  S  S  S  S   
--------------------------------------------------|
--------------------------------------------------|
--------------------------------------------------|
--------------------------------------------------|
--------------------------------------------------|
--4--4--4--4--4--4--4--4--4--4--4--4--4--4--4--4--|


  PM PM PM PM PM PM PM PM PM PM PM PM PM PM PM PM  
  S  S  S  S  S  S  S  S  S  S  S  S  S  S  S  S   
--------------------------------------------------|
--------------------------------------------------|
--------------------------------------------------|
--------------------------------------------------|
--0--0--0--0--0--0--0--0--0--0--0--0--0--0--0--0--|
--------------------------------------------------|


  PM PM PM PM PM PM PM PM PM PM PM PM PM PM PM PM  
  S  S  S  S  S  S  S  S  S  S  S  S  S  S  S  S   
--------------------------------------------------|
--------------------------------------------------|
--------------------------------------------------|
--------------------------------------------------|
--0--0--0--0--0--0--0--0--0--0--0--0--0--0--0--0--|
--------------------------------------------------|


  PM PM PM PM PM PM PM PM PM PM PM PM PM PM PM PM                        
  S  S  S  S  S  S  S  S  S  S  S  S  S  S  S  S     Q.     Q.     Q     
--------------------------------------------------|---------------------|
--------------------------------------------------|---------------------|
--------------------------------------------------|---------------------|
--------------------------------------------------|--6------6------6----|
--2--2--2--2--2--2--2--2--2--2--2--2--2--2--2--2--|--4------4------4----|
--------------------------------------------------|---------------------|


                       /CHORUS: ~~~~~~~~~~~~~~~~~~~~~~~~~~~~~ /

                         PM PM PM PM PM PM PM PM PM PM PM PM PM PM PM PM  
  E  Q.     Q    Q       S  S  S  S  S  S  S  S  S  S  S  S  S  S  S  S   
----------------------|--------------------------------------------------|
----------------------|--------------------------------------------------|
----------------------|--------------------------------------------------|
--L--6------6----6----|--------------------------------------------------|
--L--4------4----4----|--0--0--0--0--0--0--0--0--0--0--0--0--0--0--0--0--|
----------------------|--------------------------------------------------|


  PM PM PM PM PM PM PM PM PM PM PM PM PM PM PM PM  
  S  S  S  S  S  S  S  S  S  S  S  S  S  S  S  S   
--------------------------------------------------|
--------------------------------------------------|
--------------------------------------------------|
--------------------------------------------------|
--2--2--2--2--2--2--2--2--2--2--2--2--2--2--2--2--|
--------------------------------------------------|


  PM PM PM PM PM PM PM PM PM PM PM PM PM PM PM PM  
  S  S  S  S  S  S  S  S  S  S  S  S  S  S  S  S   
--------------------------------------------------|
--------------------------------------------------|
--------------------------------------------------|
--------------------------------------------------|
--------------------------------------------------|
--4--4--4--4--4--4--4--4--4--4--4--4--4--4--4--4--|


  PM PM PM PM PM PM PM PM PM PM PM PM PM PM PM PM  
  S  S  S  S  S  S  S  S  S  S  S  S  S  S  S  S   
--------------------------------------------------|
--------------------------------------------------|
--------------------------------------------------|
--------------------------------------------------|
--0--0--0--0--0--0--0--0--0--0--0--0--0--0--0--0--|
--------------------------------------------------|


  PM PM PM PM PM PM PM PM PM PM PM PM PM PM PM PM  
  S  S  S  S  S  S  S  S  S  S  S  S  S  S  S  S   
--------------------------------------------------|
--------------------------------------------------|
--------------------------------------------------|
--------------------------------------------------|
--0--0--0--0--0--0--0--0--0--0--0--0--0--0--0--0--|
--------------------------------------------------|


  PM PM PM PM PM PM PM PM PM PM PM PM PM PM PM PM                        
  S  S  S  S  S  S  S  S  S  S  S  S  S  S  S  S     Q.     Q.     Q     
--------------------------------------------------|---------------------|
--------------------------------------------------|---------------------|
--------------------------------------------------|---------------------|
--------------------------------------------------|--6------6------6----|
--2--2--2--2--2--2--2--2--2--2--2--2--2--2--2--2--|--4------4------4----|
--------------------------------------------------|---------------------|


  E  Q.     Q    Q      
----------------------|
----------------------|
----------------------|
--L--6------6----6----|
--L--4------4----4----|
----------------------|



/CHORUS SOLO/ 

  Q     Q     Q     E   E       W                   Q     Q     Q     E   E    
----------------------------|--------------------|----------------------------|
-------14----16----17--16~--|---L----------------|-------12----14----16--14~--|
----------------------------|--------------------|----------------------------|
----------------------------|--------------------|----------------------------|
----------------------------|--------------------|----------------------------|
----------------------------|--------------------|----------------------------|


   W                   Q     Q     Q     E   E       H         Q     Q     
--------------------|----------------------------|------------------------|
---L----------------|-------14----16----17--16~--|---L--------14----12----|
--------------------|----------------------------|------------------------|
--------------------|----------------------------|------------------------|
--------------------|----------------------------|------------------------|
--------------------|----------------------------|------------------------|


   H.             E   E      W                    Q     Q     Q     E   E    
-------------------------|---------------------|----------------------------|
--14~--------------------|---------------------|-------14----16----17--16~--|
-----------------13--11--|--13~----------------|----------------------------|
-------------------------|---------------------|----------------------------|
-------------------------|---------------------|----------------------------|
-------------------------|---------------------|----------------------------|


   W                   Q     Q     Q     E   E       W                 
--------------------|-------------------14-------|--------------------|
---L----------------|-------16----17--------17~--|---L----------------|
--------------------|----------------------------|--------------------|
--------------------|----------------------------|--------------------|
--------------------|----------------------------|--------------------|
--------------------|----------------------------|--------------------|


  Q     Q     Q     E   E       H         Q     Q        W                  
----------------------------|------------------------|---------------------|
-------14----16----17--16~--|---L--------14----12----|--14~----------------|
----------------------------|------------------------|---------------------|
----------------------------|------------------------|---------------------|
----------------------------|------------------------|---------------------|
----------------------------|------------------------|---------------------|



/INTERLUDE: ~~~~~~~~~~~~~~~~~~~~~~~~~~~~~~~~~~~~~~~~~~~~~~~~~~~~~ /


 W                    H.           Q       W                   W                 
-------------------|--------------------|-------------------|-------------------|
-------------------|--------------------|-------------------|-------------------|
-2-----------------|--------------------|-------------------|--2----------------|
-2-----------------|--3------------5----|--L----------------|--2----------------|
-0-----------------|--3------------5----|--L----------------|--0----------------|
-------------------|--1------------3----|--L----------------|-------------------|


  W                   Q.     Q.      Q        E   E   E    E    H         
-------------------|----------------------|------------------------------|
-------------------|----------------17----|---L--17--17S--18S--17--------|
--L----------------|--5------5------------|------------------------------|
--L----------------|--5------5------14----|---L--14--14S--15S--14--------|
--L----------------|--3------3------------|------------------------------|
-------------------|----------------------|------------------------------|


     PM PM    PM PM    PM    PM    PM PM    PM    PM  
  E  E  E  E  E  E  E  E     E  E  E  E  E  E  E  E   
--------------------------|--------------------------|
--------------------------|--------------------------|
--2--------2--------2-----|-----2--------2-----2-----|
--2--2--2--2--2--2--2--2--|--2--2--2--2--2--2--2--2--|
--0--0--0--0--0--0--0--0--|--0--0--0--0--0--0--0--0--|
--------------------------|--------------------------|


     PM PM    PM PM    PM    PM    PM PM    PM    PM  
  E  E  E  E  E  E  E  E     E  E  E  E  E  E  E  E   
--------------------------|--------------------------|
--------------------------|--------------------------|
--------------------------|--------------------------|
--3--------3--------5-----|-----5--------5-----5-----|
--3--3--3--3--3--3--5--5--|--5--5--5--5--5--5--5--5--|
--1--1--1--1--1--1--3--3--|--3--3--3--3--3--3--3--3--|


     PM PM    PM PM    PM    PM    PM PM    PM    PM                        
  E  E  E  E  E  E  E  E     E  E  E  E  E  E  E  E     Q.     Q.     Q     
--------------------------|--------------------------|---------------------|
--------------------------|--------------------------|---------------------|
--2--------2--------2-----|-----2--------2-----2-----|--5------5------9----|
--2--2--2--2--2--2--2--2--|--2--2--2--2--2--2--2--2--|--5------5------9----|
--0--0--0--0--0--0--0--0--|--0--0--0--0--0--0--0--0--|--3------3------7----|
--------------------------|--------------------------|---------------------|

                      /SOLO INTERLUDE part 2/
  E  Q.     H            Q.      Q.      Q        E   Q.      Q     Q     
---------------------|------------------------|--------------------------|
---------------------|------------------------|--------------------------|
--L--9------8--------|--18------16------14----|---L--14------16----18----|
--L--9------9--------|------------------------|--------------------------|
--L--7------6--------|------------------------|--------------------------|
---------------------|------------------------|--------------------------|


      Q.      Q.      Q         E     H.            E   
---------------------------|---------------------------|
---------------------------|---------------------------|
--16g19------18------18----|--(18)b--16-------------L--|
---------------------------|---------------------------|
---------------------------|---------------------------|
---------------------------|---------------------------|


   Q.      Q.      Q        E   Q.      Q     Q        Q.      Q.      Q      
------------------------|--------------------------|--12------12------13~----|
------------------------|--------------------------|-------------------------|
--18------16------14----|---L--14------16----18----|-------------------------|
------------------------|--------------------------|-------------------------|
------------------------|--------------------------|-------------------------|
------------------------|--------------------------|-------------------------|


             |--3--|   |---3---|                            
   H         Q     E   E   E   E      Q.      Q.      Q     
---L---------L--------------------|--17------16------14----|
------------------17--17--19--20--|------------------------|
----------------------------------|------------------------|
----------------------------------|------------------------|
----------------------------------|------------------------|
----------------------------------|------------------------|


   E   Q.      Q     Q        Q.       Q.      Q     
---L--14------16----17----|--17b------17------17----|
--------------------------|-------------------------|
--------------------------|-------------------------|
--------------------------|-------------------------|
--------------------------|-------------------------|
--------------------------|-------------------------|


    E     H.            E      Q.      Q.      Q        E   Q.      Q     Q     
--(17)b--16-------------L--|--17------16------14----|---L--14------16----17----|
---------------------------|------------------------|--------------------------|
---------------------------|------------------------|--------------------------|
---------------------------|------------------------|--------------------------|
---------------------------|------------------------|--------------------------|
---------------------------|------------------------|--------------------------|


   Q.      Q.      Q          W                    W                 
--24------24------24b~----|---L~----------------|-------------------|
--------------------------|---------------------|-------------------|
--------------------------|---------------------|-------------------|
--------------------------|---------------------|-------------------|
--------------------------|---------------------|-------------------|
--------------------------|---------------------|-------------------|


/SOLO INTERLUDE part 1/

   W                    Q.      Q.      Q        E   Q.      Q     Q     
--------------------|------------------------|--------------------------|
---L----------------|--13------12------10----|---L--10------12----13----|
--------------------|------------------------|--------------------------|
--------------------|--10-------9-------7----|---L---7-------9----10----|
--------------------|------------------------|--------------------------|
--------------------|------------------------|--------------------------|


   Q.      Q.      Q        E   Q.      H            Q.      Q.      Q     
------------------------|------------------------|------------------------|
--15------13------13----|---L--12------12--------|--13------12------10----|
------------------------|------------------------|------------------------|
--12------10------10----|---L---9-------9--------|--10-------9-------7----|
------------------------|------------------------|------------------------|
------------------------|------------------------|------------------------|


   E   Q.      Q     Q        Q.      Q.      Q     
--------------------------|------------------------|
---L--10------12----13----|--13------13------17----|
--------------------------|------------------------|
---L---7-------9----10----|--10------10------14----|
--------------------------|------------------------|
--------------------------|------------------------|


   E   E   E    E    H            Q.      Q.      Q     
------------------------------|------------------------|
---L--17--17S--18S--17--------|--13------12------10----|
------------------------------|------------------------|
---L--14--14S--15S--14--------|--10-------9-------7----|
------------------------------|------------------------|
------------------------------|------------------------|


   E   Q.      Q     Q        Q.      Q.      Q        E   Q.      H         
--------------------------|------------------------|------------------------|
---L--10------12----13----|--15------13------13----|---L--12------12--------|
--------------------------|------------------------|------------------------|
---L---7-------9----10----|--12------10------10----|---L---9-------9--------|
--------------------------|------------------------|------------------------|
--------------------------|------------------------|------------------------|


/BRIDGE: ~~~~~~~~~~~~~~~~~~~~~~~~~~~~~~~~~~~~~ /

 
  W                    E  E   E  E   E  E  E   E     E   E  E   E  E  E  E  E   
-------------------|--12--0--13--0--16--0--0--16--|--0--17--0--19--0--0--0--0--|
-------------------|------------------------------|----------------------------|
-------------------|------------------------------|----------------------------|
-------------------|------------------------------|----------------------------|
-------------------|------------------------------|----------------------------|
-------------------|------------------------------|----------------------------|


   E  E   E  E   E  E  E   E     E   E  E   E  E  E  E  E   
--20--0--19--0--17--0--0--16--|--0--13--0--12--0--0--0--0--|
------------------------------|----------------------------|
------------------------------|----------------------------|
------------------------------|----------------------------|
------------------------------|----------------------------|
------------------------------|----------------------------|


   E  E   E  E   E  E  E   E     E   E  E   E  E  E  E  E   
--12--0--13--0--16--0--0--16--|--0--17--0--19--0--0--0--0--|
------------------------------|----------------------------|
------------------------------|----------------------------|
------------------------------|----------------------------|
------------------------------|----------------------------|
------------------------------|----------------------------|


   E  E   E  E   E  E  E   E     E   E  E   E  E  E  E  E   
--20--0--19--0--17--0--0--16--|--0--13--0--12--0--0--0--0--|
------------------------------|----------------------------|
------------------------------|----------------------------|
------------------------------|----------------------------|
------------------------------|----------------------------|
------------------------------|----------------------------|


   E  E   E  E   E  E  E   E     E   E  E   E  E  E  E  E   
--12--0--13--0--16--0--0--16--|--0--17--0--19--0--0--0--0--|
------------------------------|----------------------------|
------------------------------|----------------------------|
------------------------------|----------------------------|
------------------------------|----------------------------|
------------------------------|----------------------------|


   E  E   E  E   E  E  E   E     E   E  E   E  E  E  E  E   
--20--0--19--0--17--0--0--16--|--0--13--0--12--0--0--0--0--|
------------------------------|----------------------------|
------------------------------|----------------------------|
------------------------------|----------------------------|
------------------------------|----------------------------|
------------------------------|----------------------------|


   E  E   E  E   E  E  E   E     E   E  E   E  E  E  E  E   
--12--0--13--0--16--0--0--16--|--0--17--0--19--0--0--0--0--|
------------------------------|----------------------------|
------------------------------|----------------------------|
------------------------------|----------------------------|
------------------------------|----------------------------|
------------------------------|----------------------------|


   E  E   E  E   E  E  E   E     E   E  E   Q     Q    E   
--20--0--19--0--17--0--0--16--|--0--13--0--12S------------|
------------------------------|---------------------------|
------------------------------|---------------------------|
------------------------------|---------------------------|
------------------------------|---------------------------|
------------------------------|---------------------------|


     PM    PM     PM PM        PM    PM    PM PM PM PM  
  E  E  E  E   E  E  E   E     E  E  E  E  E  E  E  E   
----------------------------|--------------------------|
----------------------------|--------------------------|
----------------------------|--------------------------|
----------------------------|-----7-----9--------------|
--7-----8-----11--------11--|--------------------------|
-----0-----0------0--0------|--0-----0-----0--0--0--0--|


      PM    PM    PM PM        PM    PM    PM           
   E  E  E  E  E  E  E   E     E  E  E  E  E  E  E  E   
----------------------------|--------------------------|
----------------------------|--------------------------|
----------------------------|--------------------------|
--10-----9-----7------------|--------------------------|
------------------------11--|-----8-----7--------------|
------0-----0-----0--0------|--0-----0-----0--0--0--0--|


     PM    PM     PM PM        PM    PM    PM PM PM PM  
  E  E  E  E   E  E  E   E     E  E  E  E  E  E  E  E   
----------------------------|--------------------------|
----------------------------|--------------------------|
----------------------------|--------------------------|
----------------------------|-----7-----9--------------|
--7-----8-----11--------11--|--------------------------|
-----0-----0------0--0------|--0-----0-----0--0--0--0--|


      PM    PM    PM PM        PM    PM    PM           
   E  E  E  E  E  E  E   E     E  E  E  E  E  E  E  E   
----------------------------|--------------------------|
----------------------------|--------------------------|
----------------------------|--------------------------|
--10-----9-----7------------|--------------------------|
------------------------11--|-----8-----7--------------|
------0-----0-----0--0------|--0-----0-----0--0--0--0--|


     PM    PM     PM PM        PM    PM    PM PM PM PM  
  E  E  E  E   E  E  E   E     E  E  E  E  E  E  E  E   
----------------------------|--------------------------|
----------------------------|--------------------------|
----------------------------|--------------------------|
----------------------------|-----7-----9--------------|
--7-----8-----11--------11--|--------------------------|
-----0-----0------0--0------|--0-----0-----0--0--0--0--|


      PM    PM    PM PM        PM    PM    PM                               
   E  E  E  E  E  E  E   E     E  E  E  E  E  E  E  E     W                 
----------------------------|--------------------------|------|
----------------------------|--------------------------|------|
----------------------------|--------------------------|------|
--10-----9-----7------------|--------------------------|------|
------------------------11--|-----8-----7--------------|------|
------0-----0-----0--0------|--0-----0-----0--0--0--0--|------|

Тональность:

Это должно быть в ТОП-листе! - Топ-лист композиций



Назад
Рекомендуем посмотреть другие песни исполнителя «Arch Enemy»:

  • Комменты Fb ()
  • Комменты ВК



Добавить в Избранное Браузера
Сохранить здесь Очистить


x

0


+
-

+
-

-

Авторизация





Зарегистрироваться

M

Дата и время

  • 20:30:10
     

Социальные ссылки


Наши приложения

  • Muzbank App Play Market
  • Muzbank Amazon App