MUZBANK


МУЗЫКАЛЬНО-ИНФОРМАЦИОННЫЙ БАНК





AArch Enemy • War Eternal (аккорды и текст - chords & lyrics)


918

Print

Видео «War Eternal (Arch Enemy)»

Видео клипы к песне подбираются автоматически сайтом youtube. Возможны некоторые несоответствия клипов песне.

↑ Спрятать рекламу ↑





Friend or foe there's no way to know
In the battlefield of life its kill or be killed.
So many times its a matter of degrees
From being up on your luck to down on your knees.

Its a hellish inferno
This is war eternal.

They try to change you, crush and break you.

Try to tell you what to do
They love to have control of you
Back against the wall
In danger of losing it all
Search deep inside
Remember who you are.

It's time like these when lines are drawn
Which side of the fence you are standing on?
There will come a day not so far away
When the hunter becomes the prey (and you will pay).

Its a hellish inferno
This is war eternal.

They try to change you, crush and break you.

Try to tell you what to do
They love to have control of you
Back against the wall
In danger of losing it all
Search deep inside
Remember who you are.

This is fucking war!

They try to change you, crush and break you.

Try to tell you what to do
They love to have control of you
Back against the wall
In danger of losing it all
Search deep inside
Remember who you are.



D||----------------------------------|-------------------------------|
A||----------------------------------|-------------------------------|
F||----------------------------------|-------------------------------|
C||----------------------------------|-------------------------------|
G||--0-------------------------------|--------------------------1----|
C||--0-0-0-0-0-0-0-0-0-0-0-0-0-0-0-0-|--0-0-0-0-0-0-0-0-0-0-0-0-1----|



-------------------|---------------------|----------------------------------|
-------------------|---------------------|----------------------------------|
-------------------|-----------\6--------|----------------------------------|
--3----------------|--2------------------|----------------------------------|
--1----------------|--0--------\4--------|--0-------------------------------|
-------------------|---------------------|--0-0-0-0-0-0-0-0-0-0-0-0-0-0-0-0-|


                                        Verse
---------------------------------------|--------------------------|
---------------------------------------|--------------------------|
---------------------------------------|--------------------------|
---------------------------------------|--8--------7--------7-----|
--5p-0--7p-0--8p-0--12p-0-10p-0-8p-0-7-|--5--5--5--5--5--5--5--5--|
---------------------------------------|--------------------------|


--------------------------|--------------------------|
--------------------------|--------------------------|
--------------------------|--------------------------|
--5--7--8--7--------7-----|--5--------5--------5-----|
--3--5--5--5--5--5--5--5--|--3--------3--------3-----|
--------------------------|-----0--0-----0--0-----0--|

 
--------------------------|--------------------------|
--------------------------|--------------------------|
--------------------------|--------------------------|
--5--------7--------7-----|--8--------7--------7-----|
--3--------5--------5-----|--5--5--5--5--5--5--5--5--|
-----0--0-----0--0-----0--|--------------------------|

  
--------------------------|--------------------------|
--------------------------|--------------------------|
--------------------------|--------------------------|
--5--7--8--7--------7-----|--5--------5--------5-----|
--3--5--5--5--5--5--5--5--|--3--------3--------3-----|
--------------------------|-----0--0-----0--0-----0--|

   
--------------------------|--------------------------|
--------------------------|--------------------------|
--------------------------|--------------------------|
--------------------------|--8--------7--------7-----|
--8--7--5~----------------|--5--5--5--5--5--5--5--5--|
--------------3--2--0~----|--------------------------|

  
--------------------------|--------------------------|
--------------------------|--------------------------|
--------------------------|--------------------------|
--5--7--8--7--------7-----|--5--------5--------5-----|
--3--5--5--5--5--5--5--5--|--3--------3--------3-----|
--------------------------|-----0--0-----0--0-----0--|

 
--------------------------|--------------------------|
--------------------------|--------------------------|
--------------------------|--------------------------|
--5--------7--------7-----|--8--------7--------7-----|
--3--------5--------5-----|--5--5--5--5--5--5--5--5--|
-----0--0-----0--0-----0--|--------------------------|


  
--------------------------|--------------------------|
--------------------------|--------------------------|
--------------------------|--------------------------|
--5--7--8--7--------7-----|--5--------5--------5-----|
--3--5--5--5--5--5--5--5--|--3--------3--------3-----|
--------------------------|-----0--0-----0--0-----0--|


   
--------------------------|----------------------|-----------------------|
--------------------------|----------------------|-----------------------|
--------------------------|--/5------3--------~--|--2--3--5--3-----------|
--------------------------|----------------------|------------------5----|
--8--7--5~----------------|----------------------|-----------------------|
--------------3--2--0~----|----------------------|-----------------------|


 
----------------------|-------------------|----------------------|
----------------------|-------------------|----------------------|
----------------------|-------------------|--/5------3--------L--|
--/8------7------3----|-------------------|----------------------|
----------------------|--3----------------|----------------------|
----------------------|-------------------|----------------------|


           
-----------------------|----------------------|---------------------|
-----------------------|----------------------|---------------------|
--2--3--5--3-----------|----------------------|---------------------|
------------------5----|--/8------7------3----|--8--7--5------------|
-----------------------|----------------------|---------------------|
-----------------------|----------------------|---------------------|


  
--------------------------|--------------------------|
--------------------------|--------------------------|
--------------------------|--------------------------|
--------------------------|--------------------------|
--1--------1--------1-----|-----1--------1-----1-----|
--1--1--1--1--1--1--1--1--|--1--1--1--1--1--1--1--1--|



--------------------------|----------------------------||
--------------------------|----------------------------||
--------------------------|------------2--/7--5--------||
--------------------------|--/4-----4------------8--7--|
--3--------3--------3-----|------5---------------------||
--3--3--3--3--3--3--3--3--|----------------------------||




/Rhythm Guitar 1/ 
-------------------|----------------------|-------------------|
-------------------|----------------------|-------------------|
-------------------|----------------------|-------------------|
-------------------|----------------------|-------------------|
--5----------------|--~----~--------~--7--|--~----------------|
--5----------------|--~----~--------~--7--|--~----------------|



/Rhythm Solo Guitar 2/ 
|---------------------|-----------------------||-----------------------|
|---------------------|-----------------------||-----------------------|
|------------------5--|--7----5---------5-----||-----------------------|
|--5------------8-----|----------8---------7--||--~--8--7----5----3----|
|---------------------|-----------------------||-----------------------|
|---------------------|-----------------------||-----------------------|

           
---------------------|-----------------------|-------------------|
---------------------|-----------------------|-------------------|
------------------5--|--7----5---------5-----|-------------------|
--5------------8-----|----------8---------7--|--~----------------|
---------------------|-----------------------|-------------------|
---------------------|-----------------------|-------------------|



/Prepare to Solo/
------------------------------|------------------------------|
------------------------------|------------------------------|
------------------------------|------------------------------|
------------------------------|------------------------------|
-----0-0-0-----0-0-0--1-1-1-~-|--0-0-0-----0-0-0-----0-0-0---|
-----0-0-0-----0-0-0--1-1-1-~-|--0-0-0-----0-0-0-----0-0-0---|


/Solo/


--15p-12----12h-15p-12h-15p-12----12h-15p-12h-15p-12----12h-|
---------15--------------------15--------------------15-----|
------------------------------------------------------------|
------------------------------------------------------------|
------------------------------------------------------------|
------------------------------------------------------------|



--15p-12----12h-15p-12h-15p-12----12h-15p-12h-15p-12----12-|
---------15--------------------15--------------------15----|
-----------------------------------------------------------|
-----------------------------------------------------------|
-----------------------------------------------------------|
-----------------------------------------------------------|

  
--12--15b-------------x--|--15--15b~-------------x--|
-------------------------|--------------------------|
-------------------------|--------------------------|
-------------------------|--------------------------|
-------------------------|--------------------------|
-------------------------|--------------------------|

           |---3---|                      
--12--14--12h-14p-12-----12------12--14--|
---------------------15------15----------|
-----------------------------------------|
-----------------------------------------|
-----------------------------------------|
-----------------------------------------|


                           |---3---|            
--15--17--15--14--12--14--12h-14p-12-----|--12------------------------------|
-------------------------------------15--|------15--12------12----------15--|
-----------------------------------------|--------------14------14--12------|
-----------------------------------------|----------------------------------|
-----------------------------------------|----------------------------------|
-----------------------------------------|----------------------------------|



--------------------|-----------------------|--------------------------|
--12----------------|-----------------------|--------------------------|
--------------------|----------------2---3--|--x-2----x--3p-2----------|
--------------------|--/5--------5----------|-----------------5------x-|
--------------------|-----------------------|--------------------------|
--------------------|-----------------------|--------------------------|


  ^        ^                                         
                                         |---3---|  
--------------------|-------------------15--15--15--|
--8--------6--------|--8p-6-------------------------|
--7--------5--------|-------7--------x--------------|
--5--------3--------|-------------------------------|
--------------------|-------------------------------|
--------------------|-------------------------------|


   |---3---|   |---3---|   |---3---|   |---3---|       
--------------------------------------------------|------------------------|
--15--15------------------------------------------|------------------------|
----------15--15----------------------------------|---------7------7b------|
------------------17--17--------------------------|------------------------|
--------------------------17--17--13--13--10--10--|---x~-------------------|
--------------------------------------------------|------------------------|


----------------------|---------------------------|-----------------------|
----------------------|-------8---10---11---10----|---x--8--8--------8----|
--7-5-7------------x--|----7----------------------|-----------------------|
----------------------|---------------------------|-----------------------|
----------------------|---------------------------|-----------------------|
----------------------|---------------------------|-----------------------|


------------------------|-----------------------------------|
--x----6------8p-6------|-----------------------------------|
-------------------7----|--x--x----------------7--7---8--10-|
------------------------|-----------------------------------|
------------------------|-----------------------------------|
------------------------|-----------------------------------|


---------------------------|-----------------------|--------------------------|
---------------------------|-----------------------|-----8------\10--10-------|
---x--10------8p-7-8----x--|--x--8\------5--5------|--x-----------------------|
---------------------------|-----------------------|--------------------------|
---------------------------|-----------------------|--------------------------|
---------------------------|-----------------------|--------------------------|


    TP                                                      
              |---3---|   |---3--|   |---3---|   |---3---|   
--\17--------17h-18p-17h-18--------------------------------|
----------------------------16h-18p-16h-18p-16p-15h-16p-15-|
-----------------------------------------------------------|
-----------------------------------------------------------|
-----------------------------------------------------------|
-----------------------------------------------------------|


   |---3---|   |---3--|   |---3---|   |---3---|   |---3--|   |---3---|  |--3--| 
--------------------------------------------------------------------------------
--13h-15p-13h-15----------------------------------------------------------------
-----------------15h-17p-15h-17p-14h-15p-14h-15p-14-----------------------------
----------------------------------------------------15h-17p-15h-17p-15----------
-----------------------------------------------------------------------15-17-15-
--------------------------------------------------------------------------------


                                         |---3---|     
------------------------|---------11----10h-11p-10-8--11--|
------------------------|---------------------------------|
------------8br------7--|--8------------------------------|
------------------------|---------------------------------|
------------------------|---------------------------------|
--15--------------------|---------------------------------|

    
--10--8------10--8----------8--|-------------------------------|
---------11---------11--10-----|--11--10--8--------------8-----|
-------------------------------|-------------10---xb----10b----|
-------------------------------|-------------------------------|
-------------------------------|-------------------------------|
-------------------------------|-------------------------------|


----------------17--17b----|--17--15-----------------------------|
---x-----------------------|------------------------------20h-23-|
---x--10-------------------|-----------------------19h-22--------|
---------------------------|----------------17h-20---------------|
---------------------------|-------------------------------------|
---------------------------|-------------------------------------|

 
--22p-18----------18h-22p-18----------18h-22p-18-------|
---------20----20------------20----20------------20----|
------------19------------------19------------------19-|
-------------------------------------------------------|
-------------------------------------------------------|
-------------------------------------------------------|

 
--20p-17----------17h-20p-17----------17h-20p-17-------|
---------18----18------------18----18------------18----|
------------17------------------17------------------17-|
-------------------------------------------------------|
-------------------------------------------------------|
-------------------------------------------------------|



--18p-15----------15h-18p-15----------15h-18p-15-------|
---------16----16------------16----16------------16----|
------------15------------------15------------------15-|
-------------------------------------------------------|
-------------------------------------------------------|
-------------------------------------------------------|


--18p-17p-15----17p-15p-13----15----------------------|
-------------18------------16----18-16-15-18-16-15----|
---------------------------------------------------17-|
------------------------------------------------------|
------------------------------------------------------|
------------------------------------------------------|


                                         |---3---|      
-----------------------------|--18br----15h-18p-15----------------|
--------------18b---------x--|---------------------18b---------x--|
--17br----15-----------------|------------------------------------|
-----------------------------|------------------------------------|
-----------------------------|------------------------------------|
-----------------------------|------------------------------------|


                   NH         NH        
------------------------|----------------------|
------------------------|----------------------|
---------7------15----|---x----------------|
--5---------------------|----------------------|
------------------------|----------------------|
------------------------|----------------------|

Тональность:

Это должно быть в ТОП-листе! - Топ-лист композиций



Назад
Рекомендуем посмотреть другие песни исполнителя «Arch Enemy»:

  • Комменты Fb ()
  • Комменты ВК



Добавить в Избранное Браузера
Сохранить здесь Очистить


x

0


+
-

+
-

-

Авторизация





Зарегистрироваться

M

Дата и время

  • 05:29:32
     

Социальные ссылки


Наши приложения

  • Muzbank App Play Market
  • Muzbank Amazon App