MUZBANK


МУЗЫКАЛЬНО-ИНФОРМАЦИОННЫЙ БАНК





ААрия • Точка Невозврата (аккорды и текст - chords & lyrics)


4840

Print

Видео «Точка Невозврата (Ария)»

Видео клипы к песне подбираются автоматически сайтом youtube. Возможны некоторые несоответствия клипов песне.

↑ Спрятать рекламу ↑





/Вступление:/
Hsus2   Hm   Hsus4   Hm (2 раза)

/Куплеты:/
 Hsus2       Hm
Спит    земля,
F#m                 G         D      F#m
Укрыты дымкой облаков поля и города,
 Hsus2        Hm
За       бортом
F#m                                 G
Балластом прошлого – вся жизнь и дом,
     C
Объятый сном,

      Em              F#
Безмолвие уносит за собой
         Em                     F#
В пространство нереальности чужой,

Сквозь туман,
Прочь от смятения души спешим к другим мирам. 
Больше нет
Любви, что многих держит на Земле,
Надежды нет!
Есть точка не возврата из мечты –
Лететь на свет таинственной звезды…

/Припев:/
               G
  Плыть в серебре
             Em
  Лунных морей,
                D                A
  Солнце нам вслед пошлет свой ветер
  
  Плыть по волнам
  В тот океан,
  Что называется "Бессмертие".

/Куплеты:/

Может быть,
Наивны мы, и нет нигде орбит другой Судьбы
Может быть,
Нам не найти во тьме маршрут туда,
Где Время спит,
Есть точка не возврата из мечты,
И мы с тобой смогли её пройти

/Припев:/ 
  Плыть в серебре
  Лунных морей,
  Солнце нам вслед пошлет свой ветер
  
  Плыть по волнам
  В тот океан,
  Что называется "Бессмертие".
  
/Отступление:/
Am                        
Как магнит к себе влечёт звезда,
Свет везде – полна им темнота,
Это знак разгаданных глубин.
             E            
В поисках изменчивой Судьбы
Против нас восставшие миры,
Нас бросает в бездну новый взрыв!
Вот и всё – мы все теперь ничто,
Яркий миг слияния с мечтой!




/Соло:/

                                              PM PM PM PM PM PM PM                
                                              |--3--|  |--3--|  |--3--|  |--3--| 
-------------------------------|-------------------------------------------------|
--/10~------L\--8br------------|----------------------------------------10-12-13-|
-----------------------9--10~--|--L----L\-------------------------10-12----------|
-------------------------------|----------------------------10-12----------------|
-------------------------------|----------------------10-12----------------------|
-------------------------------|-------------10-12-13----------------------------|


                                                                                      \1/  
--12------15~------17--------|----------------------19----20~--|--L-----20br-----17------|
--13-------------------15br--|--L--15~------L\--17-----17------|---------------------18--|
-----------------------------|---------------------------------|-------------------------|
-----------------------------|---------------------------------|-------------------------|
-----------------------------|---------------------------------|-------------------------|
-----------------------------|---------------------------------|-------------------------|


                |--3--|  |--3--|  |--3--|  |--3--|       
--------------/17-15-------------------------------|-----------------------------|
--L----L\------------18-17-15----------------------|-----------------------------|
------------------------------17-16-14-------------|-----------12----14~--L\-----|
---------------------------------------17-15-14----|--14~------------------------|
------------------------------------------------17-|-----------------------------|
---------------------------------------------------|-----------------------------|


   |--3--|  |--3--|  |--3--|  |--3--|  |--3--|  |--3--|  |--3--|  |--3--|  
--------------------------------------------------------------------------|
--12----------------------------------12----------------------------------|
-----13----------------------------13----13-------------------13----------|
--------14----------12-14-12----12----------14----------12-14----14-12----|
-----------14-12-14----------14----------------14-12-14----------------14-|
--------------------------------------------------------------------------|


    \2                                                                            
----------------------------|
----------------------------|
----------------------------|
-----------------------/9~--|
----------------------------|
--0--------7--10--7-------|


/Соло на припев (тема):/
|-------------------------|--------------------------|
|-------------------------|--------------------------|
|-------------------------|--------------------------|
|-(/9)--------9--7--------|--------------------------|
|-----------------9--10~--|--L----------------7--9~--|
|-------------------------|-----------10--10---------|
 
--------------------------|---------------------------|-------------------------|
--------------------------|---------------------------|-------------------------|
--------------------------|---------------------------|-------------------------|
----------7~--------------|-----------------------9~--|--L--------9--7----------|
--L----9----------9--7br--|--L--L~--------------------|-----------------9--10~--|
--------------------------|-------------7--10--7------|-------------------------|

  
--------------------------|--------------------------|----------------------------|
--------------------------|--------------------------|----------------------------|
--------------------------|--------------------------|----------------------------|
--------------------------|----------7~------9--7br--|--L--L~----------------/9~--|
--L----------------7--9~--|--L----9------------------|----------------------------|
-----------10--10---------|--------------------------|-------------7--10--7-------|

 
-------------------------|--------------------------|--------------------------|
-------------------------|--------------------------|--------------------------|
-------------------------|--------------------------|--------------------------|
--L--------9--7----------|--------------------------|----------7~--------------|
-----------------9--10~--|--L----------------7--9~--|--L----9----------9--7br--|
-------------------------|-----------10--10---------|--------------------------|


---------------------------|-------------------------|--------------------------|
---------------------------|-------------------------|--------------------------|
---------------------------|-------------------------|--------------------------|
-----------------------9~--|--L--------9--7----------|--------------------------|
--L--L~--------------------|-----------------9--10~--|--L----------------7--9~--|
-------------7--10--7------|-------------------------|-----------10--10---------|

             
--------------------------|---------------------|
--------------------------|---------------------|
--------------------------|---------------------|
----------7~------9--7br--|--(7)----L~----------|
--L----9------------------|---------------------|
--------------------------|---------------------|



Тональность:

Это должно быть в ТОП-листе! - Топ-лист композиций



Назад
Рекомендуем посмотреть другие песни исполнителя «Ария»:

  • Комменты Fb ()
  • Комменты ВК



Добавить в Избранное Браузера
Сохранить здесь Очистить


x

0


+
-

+
-

-

Авторизация





Зарегистрироваться

M

Дата и время

  • 13:09:29
     

Социальные ссылки


Наши приложения

  • Muzbank App Play Market
  • Muzbank Amazon App