MUZBANK


МУЗЫКАЛЬНО-ИНФОРМАЦИОННЫЙ БАНК





ААукцЫон • Седьмой (аккорды и текст - chords & lyrics)


843

Print

Видео «Седьмой (АукцЫон)»

Видео клипы к песне подбираются автоматически сайтом youtube. Возможны некоторые несоответствия клипов песне.

↑ Спрятать рекламу ↑






В начале бас:
A|2-----2--|3-----3--|4-----4--|5-----5--|2--
E|----0---0|----0---0|----0---0|----0---0|---

Em            Cm                Hm
Седьмой, седьмой, отвечай, седьмой,
            H7  Em          Cm Hm H7
Я тебя не слышу. Почему молчишь?
За окном чужой, но встал герой и вышел.

У волка ночь, у героя меч,
За горами Волга, холод за спиной.
Ничего не жалко, ничего надолго.

  C      Em
Гдееееееее еще?
  C      Em
Чтоооооооо еще?
 C     Em  G* Cm Hm
Яяяяяяяяя еще!

  G*
-|----3-2-0|-
-|---------|-
-|--0------|-
-|0--------|-
-|---------|-
-|---------|-

Труба зовет, герой идет, звенит кольчуга.
Только злится вьюга и ветер гонит прочь.
Не уйти надолго, не найти друг друга.
День как день, ночь как ночь!
Где еще? Что еще? Я еще!

далее идет следующая тема:
 Em                  Hm
-|---------|---------|---------|---------|-
-|0---0----|0---0----|---------|---------|-
-|--0-----0|--0-----0|---------|---------|-
-|------2--|------2--|4---4----|4---4----|-
-|---------|---------|--5-----5|--5-----5|-
-|---------|---------|------7--|------7--|-

Em                              Hm
Седьмой, седьмой, отвечай, седьмой,
                Em               Hm
Я тебя не слышу. Почему молчишь?
За окном чужой, но встал герой и вышел.
Седьмой, седьмой, не надо бы,
Седьмой, седьмой, а может быть,
Седьмой, седьмой, а если бы,
Седьмой, седьмой, ну если бы.
Надо бы, надо бы! Если бы я!

Тональность:

Это должно быть в ТОП-листе! - Топ-лист композиций



Назад
Рекомендуем посмотреть другие песни исполнителя «АукцЫон»:

  • Комменты Fb ()
  • Комменты ВК



Добавить в Избранное Браузера
Сохранить здесь Очистить


x

0


+
-

+
-

-

Авторизация





Зарегистрироваться

M

Дата и время

  • 05:17:44
     

Социальные ссылки


Наши приложения

  • Muzbank App Play Market
  • Muzbank Amazon App