MUZBANK


МУЗЫКАЛЬНО-ИНФОРМАЦИОННЫЙ БАНК





BBeatles • Revolution 1 (аккорды и текст - chords & lyrics)


579

Print

Видео «Revolution 1 (Beatles)»

Видео клипы к песне подбираются автоматически сайтом youtube. Возможны некоторые несоответствия клипов песне.

↑ Спрятать рекламу ↑





You say you want a revolution
Well you know
We all want to change the world
You tell me that it's evolution
Well you know
We all want to change the world

But when you talk about destruction
Don't you know that you can count me out, in
Don't you know it's gonna be alright ...

You say you got a real solution
Well you know
We'd all love to see the plan
You ask me for a contribution
Well you know
We're all doing what we can

But If you want money for people with minds that hate
All I can tell you is brother you have to wait
Don't you know it's gonna be alright ...

You say you'll change the constitution
Well you know
We'd all love to change your head
You tell me it's the institution
Well you know
You better free your mind instead

But If you go carrying pictures of Chairman Mao
You ain't going to make it with anyone anyhow
Don't you know it's gonna be alright ....


Baoooom shoo bee doo wop ....
Oh oh oh oh oh oh oh oh oh allright
Allright allright allright allright ...


    12/8
                                                       X

e|------ ------ ------ ------|------ ------ ------ ------|
B|---------------------------|---------------------------|
G|---------------------------|---------------------------|
D|---------------------------|---------------------------|
A|---------------------------|---------------------------|
E|---------------------------|---------------------------|

  A5     A6 ....
e|------ ------ ------ ------|------ ------ ------ ------|
B|---------------------------|---------------------------|
G|---------------------------|---------------------------|
D|2---2--2H4----2---x---H4---|2---2--2H4----2---2--2H4---|
A|0---0--0---0--0---x------0-|0---0--0---0--0---0--0---0-|
E|---------------------------|---------------------------|
                                         O  K
                    Right two?
                       take
  00:05

e|------ ------ ------ ------|------ ------ ------ ------|
B|---------------------------|---------------------------|
G|---------------------------|---------------------------|
D|2---2--2H4----2---2--2H4---|2---2--4------2---2--2H4---|
A|0---0--0---0--0---0--0---0-|0---0--0---0--0---0--0---0-|
E|---------------------------|---------------------------|

e/5-5-5- 5-5-5- 5-5-5- 5-5-5-/5-5-5- 5-5-5- 5-5-5- 5-5-5-|
B/5-5-5--5-5-5--5-5-5--5-5-5-/5-5-5--5-5-5--5-5-5--5-5-5-|
G|---------------------------|---------------------------|
D|---------------------------|---------------------------|
A|---------------------------|---------------------------|
E|---------------------------|---------------------------|

                                     E
e|------ ------ ------ ------|------ 0---0- 0---0- 0---0-|
B|---------------------------|-------0---0--0---0--0---0-|
G|---------------------------|-------1---1--1---1--1---1-|
D|2---2--2H4----2---2--2H4---|2------2---2--2---2--2---2-|
A|0---0--0---0--0---0--0---0-|0------2---2--2---2--2---2-|
E|---------------------------|-------0---0--0---0--0---0-|

e/5-5-5- 5-5-5- 5-5-5- 5-5-5-|7/8--- ------ ------ ------|
B/5-5-5--5-5-5--5-5-5--5-5-5-|7/8--------8--101110-8-----|
G|---------------------------|---------9------B-R----9-7-|
D|---------------------------|---------------------------|
A|---------------------------|---------------------------|
E|---------------------------|---------------------------|
                                  E7
e|------ ------ ------ ------|----0- 0---0- 0---0- 0---0-|
B|---------------------------|----3--3---3--3---3--3---3-|
G|---------------------------|----1--1---1--1---1--1---1-|
D|---------------------------|----2--2---2--2---2--2---2-|
A|---------------------------|----2--2---2--2---2--2---2-|
E|---------------------------|----0--0---0--0---0--0---0-|
                                                       You


  00:16

e|------ ------ ------ ------|------ ------ ------ ------|
B|---------------------------|---------------------------|
G|2---2--4---2--2---2--4---2-|2---2--2---4--2---2--2---4-|
D|2---2--4---2--2---2--4---2-|2---2--2---4--2---2--2---4-|
A|0---0--0---0--0---0--0---0-|0---0--0---0--0---0--0---0-|
E|---------------------------|---------------------------|

e|------ ------ ------ ------|------ ------ ------ ------|
B|---------------------------|---------------------------|
G|5B6------------------------|---------------------------|
D|---7-----------------------|---------------------------|
A|---------------------------|---------------------------|
E|---------------------------|---------------------------|
  Say you     a revolution                         Well
         want

  6/8

e|------ ------|
B|-------------|
G|2---2--2---2-|
D|2---2--4---2-|
A|0---0--0---0-|
E|-------------|
         You know

  12/8

e|2---2- 2---2- ----2- 2-----|2---2- 2---2- 2---2- 2-----|
B|3---3--3---3------3--3-----|3---3--3---3--3---3--3---1-|
G|2---2--4---2------2--4-----|2---2--4---2--2---2--4---1-|
D|0---0--0---0------0--0-----|0---0--0---0--0---0--0---1-|
A|---------------------------|---------------------------|
E|---------------------------|---------------------------|
                                  We all want   to change
                                                       the

  A
e|------ ------ ------ ------|------ ------ ------ ------|
B|---------------------------|---------------------------|
G|2---2--2---2--2---2--4---2-|2---2--4---2--2---2--4---2-|
D|2---2--2H4-2--2---2--4---2-|2---2--4---2--2---2--4---2-|
A|0---0--0---0--0---0--0---0-|0---0--0---0--0---0--0---0-|
E|---------------------------|---------------------------|
  world                                                You

e|------ ------ ------ ------|------ ------ ------ ------|
B|---------------------------|---------------------------|
G|2---2--4---2--2---2--4---2-|2---2--2---4--2---2--2---4-|
D|2---2--4---2--2---2--4---2-|2---2--2---4--2---2--2---4-|
A|0---0--0---0--0---0--0---0-|0---0--0---0--0---0--0---0-|
E|---------------------------|---------------------------|
  Tell   that   evolution                          Well
      me     it's

e|------ ------|
B|-------------|
G|2---2--2---2-|
D|2---2--4---2-|
A|0---0--0---0-|
E|-------------|
         You know


  D
e|2---2- 2---2- 2---2- 2---2-|2---2- 2---2- 2---2- 2---2-|
B|3---3--3---3--3---3--3---3-|3---3--3---3--3---3--3---3-|
G|2---2--4---2--2---2--4---2-|2---2--4---2--2---2--4---2-|
D|0---0--0---0--0---0--0---0-|0---0--0---0--0---0--0---0-|
A|---------------------------|---------------------------|
E|---------------------------|---------------------------|
                                  We all want   to change
                                                       the

  E7
e|0---0- 0----- 0---0- 0---0-|0---0- 0---0- 0---0- 0-----|
B|3---3--3------3---3--3---3-|3---3--3---3--3---3--3-----|
G|1---1--1------1---1--1---1-|1---1--1---1--1---1--1-----|
D|2---2--2------2---2--2---2-|2---2--2---2--2---2--2-----|
A|2---2--2------2---2--2---2-|2---2--2---2--2---2--2-----|
E|0---0--0------0---0--0---0-|0---0--0---0--0---0--0-----|
  world


  00:48
  Bm
e|2---2- 2----- ----2- 2---0-|0----- 0---0- ----2- ------|
B|3---3--3----------3--3---0-|0------0---0------3--------|
G|4---4--4----------4--4---0-|1------1---1------2--------|
D|4---4--4----------4--4-----|2------2---2------0--------|
A|2---2--2----------2--2-----|2------2---2---------------|
E|---------------------------|0------0---0---------------|

e|2----- ------ ------ ------|4----- ------ ------ ------|
B|3--------------------------|5--------------------------|
G|4--------------------------|4--------------------------|
D|---------------------------|---------------------------|
A|---------------------------|---------------------------|
E|---------------------------|---------------------------|
      But    you    about  destruction
         when   talk

e|2----- 2---2- 2---2- 2-----|3---5- ----2- ----2- 2---2-|
B|3------3---3--3---3--3-----|3---5------2------5--5---5-|
G|4------4---4--4---4--4-----|4---6------3------3--3---3-|
D|4------4---4--4---4--4-----|5---7------4------4--4---4-|
A|2------2---2--2---2--2-----|5---7------4------4--4---4-|
E|---------------------------|3---5------2------2--2---2-|

e|2----- ------ ------ ------|------ ------ ------ ------|
B|3--------------------------|3---5------2---------------|
G|4--------------------------|4---6------3---------------|
D|---------------------------|5---7------4---------------|
A|---------------------------|---------------------------|
E|---------------------------|---------------------------|
         Don't  know   you can    me     out           in
             you    that      count


                    E
e|----2- 2---2-|----0- 0---0- 0---0- 0---0-|
B|----5--5---5-|----0--0---0--0---0--0---0-|
G|----3--3---3-|----1--1---1--1---1--1---1-|
D|----4--4---4-|----2--2---2--2---2--2---2-|
A|----4--4---4-|----2--2---2--2---2--2---2-|
E|----2--2---2-|----0--0---0--0---0--0---0-|

e|------ ------|------ ------ ------ ------|
B|-------------|---------------------------|
G|-------------|---------------------------|
D|------------|2--------------------------|
A|-------------|---------------------------|
E|-------------|0--------------------------|

e|------ ------|------ ------ ------ ------|
B|-------------|----7--7---7--7-7-7--7----|
G|-------------|----7--7---7--7-7-7--7----|
D|-------------|----6--6---6--6-6-6--6----|
A|-------------|---------------------------|
E|-------------|---------------------------|
                         Don't    it's   be
                           you       gonna
                              know
                                         Baa

  01:04

e|------ ------ ------ ------|2----- 2---2- 2---2- 2-----|
B|2------2---2--2---2--2-----|3------3---3--3---3--3-----|
G|2------2---2--2---2--2-----|2------4---2--2---2--4-----|
D|2------4---2--2---2--4-----|0------0---0--0---0--0-----|
A|0------0---0--0---0--0-----|---------------------------|
E|---------------------------|---------------------------|

e|------ ------ ------ ------|------ ------ ------ ------|
B|---------------------------|---------------------------|
G|--------------2---2------2-|--------------2---2------2-|
D|---------------------------|---------------------------|
A|--------------0---0------0-|--------------0---0------0-|
E|---------------------------|---------------------------|

e|9---- ------ ------ ------|----9- ----- ------ ------|
B10-------------------------|---10---------------------|
G|9-------------------------|----9---------------------|
D|---------------------------|---------------------------|
A|---------------------------|---------------------------|
E|---------------------------|---------------------------|
                    Allright           Don't    it's   be
                                        you know   gonna
  oooom  shoobeedooowop    Baaoooom  shoobeedooowop    Baa

e|------ ------ ------ ------|2----- 2---2- 2---2- 2-----|
B|2------2---2--2---2--2-----|3------3---3--3---3--3-----|
G|2------2---2--2---2--2-----|2------4---2--2---2--4-----|
D|2------4---2--2---2--4-----|0------0---0--0---0--0-----|
A|0------0---0--0---0--0-----|---------------------------|
E|---------------------------|---------------------------|

e|------ ------ ------ ------|------ ------ ------ ------|
B|---------------------------|---------------------------|
G|--------------2---2------2-|--------------2---2------2-|
D|---------------------------|---------------------------|
A|--------------0---0------0-|--------------0---0------0-|
E|---------------------------|---------------------------|

e|9---- ------ ------ ------|----9- ------ ------ ------|
B10-------------------------|---10----------------------|
G|9-------------------------|----9----------------------|
D|---------------------------|---------------------------|
A|---------------------------|---------------------------|
E|---------------------------|---------------------------|
                    Allright           Don't    it's   be
                                        you know   gonna
  oooom  shoobeedooowop    Baaoooom  shoobeedooowop    Baa


e|------ ------ ------ ------|2----- 2---2- 2---2- 2-----|
B|2------2---2--2---2--2-----|3------3---3--3---3--3-----|
G|2------2---2--2---2--2-----|2------4---2--2---2--4-----|
D|2------4---2--2---2--4-----|0------0---0--0---0--0-----|
A|0------0---0--0---0--0-----|---------------------------|
E|---------------------------|---------------------------|

e|------ ------ ------ ------|------ ------ ------ ------|
B|---------------------------|---------------------------|
G|--------------2---2------2-|--------------2---2--------|
D|---------------------------|-------------------------2-|
A|--------------0---0------0-|--------------0---0--------|
E|---------------------------|-------------------------0-|

e|9---- ------ ------ ------|----9------- ------ ------|
B10-------------------------|---10---------------------|
G|9-------------------------|----9---------------------|
D|---------------------------|---------------------------|
A|---------------------------|---------------------------|
E|---------------------------|---------------------------|
                    Allright

e|------ ------ ------ ------|------ ------ ------ 0-----|
B|---------------------------|---------------------0-----|
G|---------------------------|---------------------0-----|
D|-----------0--------------2|-----------0---------0-----|
A|-------0H2-----------2H4---|-------0H2-----------------|
E|----0-------------0--------|----0-------------0--------|
                                                   You

  01:22

e|------ ------ ------ ------|------ ------ ------ ------|
B|---------------------------|---------------------------|
G|2---2--2---2--2------2---2-|2------2------2---2--2-----|
D|2---2--4---2--2------4---2-|2------4------2---2--4-----|
A|0---0--0---0--0------0---0-|0------0------0---0--0-----|
E|---------------------------|---------------------------|

e|------ ------ ------ ------|------ ------ ------ ------|
B|---------------------------|---------------------------|
G|---------------------------|---------------------------|
D|---------------------------|---------------------------|
A|0-------------0---0------0-|--------------0---0--------|
E|---------------------------|---------------------------|
  Say you    a  real                               Well
         got        solution

e|------ ------|
B|-------------|
G|2---2--2-----|
D|2---2--4-----|
A|0---0--0-----|
E|-------------|

e|------ ------|
B|-------------|
G|-------------|
D|-------------|
A|0---0--------|
E|-------------|
         You know


  D5       D6 ....
e|2----- ------ ----2- ------|------ 2----- ------ 2-----|
B|3---3--3---3--3---3--3-----|3---3--3---3--3---3--3---3-|
G|2---2--4---2--2---2--4-----|2---2--4---2--2---2--4---2-|
D|0---0--0---0--0---0--0-----|0---0--0---0--0---0--0---0-|
A|---------------------------|---------------------------|
E|---------------------------|---------------------------|

e|------ ------ ------ ------|------ ------ ------ ------|
B|---------------------------|---------------------------|
G|---------------------------|---------------------------|
D|---------------------------|---------------------------|
A|0-------------0---0------0-|--------------0---0------0-|
E|---------------------------|---------------------------|
                                  We'd   love   to see plan
                                     all             the
                                                       Baa

  A
e|------ ------ ------ ------|------ ------ ------ ------|
B|---------------------------|---------------------------|
G|2---2--4---2--2---2--4---2-|2---2--4---2--2---2--4---2-|
D|2---2--4---2--2---2--4---2-|2---2--4---2--2---2--4---2-|
A|0---0--0---0--0---0--0---0-|0---0--0---0--0---0--0---0-|
E|---------------------------|---------------------------|

e|------ ------ ------ ------|------ ------ ------ ------|
B|---------------------------|---------------------------|
G|---------------------------|---------------------------|
D|---------------------------|---------------------------|
A|--------------0---0------0-|--------------0---0------0-|
E|---------------------------|---------------------------|
                                                       You
  oooom  shoobeedooowop    Baaoooom  shoobeedooowop


  01:38

e|------ ------ ------ ------|------ ------ ------ ------|
B|---------------------------|---------------------------|
G|2---2--4------2---2--4-----|2---2--4---2--2---2--4-----|
D|2---2--4------2---2--4-----|2---2--4---2--2---2--4-----|
A|0---0--0------0---0--0-----|0---0--0---0--0---0--0-----|
E|---------------------------|---------------------------|

e|------ ------ ------ ------|------ ------ ------ ------|
B|---------------------------|---------------------------|
G|---------------------------|---------------------------|
D|---------------------------|---------------------------|
A|--------------0---0------0-|--------------0---0--------|
E|---------------------------|---------------------------|
  Ask me for a  contribution                       Well


e|------ ------|
B|-------------|
G|2---2--2-----|
D|2---2--4-----|
A|0---0--0-----|
E|-------------|
 
e|------ ------|
B|-------------|
G|-------------|
D|-------------|
A|0---0--------|
E|-------------|
         You know

  D
e|2----- ------ ----2- ------|2----- 2----- ------ 2-----|
B|3---3--3---3--3---3--3-----|3---3--3---3--3---3--3---3-|
G|2---2--4---2--2---2--4-----|2---2--4---2--2---2--4---2-|
D|0---0--0---0--0---0--0-----|0---0--0---0--0---0--0---0-|
A|---------------------------|---------------------------|
E|---------------------------|---------------------------|
 
e|------ ------ ------ ------|------ ------ ------ ------|
B|---------------------------|---------------------------|
G|---------------------------|---------------------------|
D|---------------------------|---------------------------|
A|0-------------0---0------0-|--------------0---0--------|
E|---------------------------|---------------------------|
                                  We are doing     what
                                                     we
                                                       can
                                                       Baa
  E
e|------ ------ ------ ------|------ ------ ------ ------|
B|---------------------------|---------------------------|
G|---------------------------|---------------------------|
D|2---2--2---2--2---2--2-----|2---2--2---2--2---2--2-----|
A|2---2--4---2--2---2--4-----|2---2--4---2--2---2--4-----|
E|0---0--0---0--0---0--0-----|0---0--0---0--0---0--0-----|
 
e|------ ------ ------ ------|------ ------ ------ ------|
B|---------------------------|---------------------------|
G|---------------------------|---------------------------|
D|---------------------------|---------------------------|
A|---------------------------|---------------------------|
E|0--------------------------|---------------------------|

e|-12--- -10--- --9--- --7---|--5--- ------ ------ ------|
B|---------------------------|-----------------------3-5-|
G/13-13-11-11-/9---9--7---7-|6---6--5---4---------4-----|
D|---------------------------|---------------------------|
A|---------------------------|---------------------------|
E|---------------------------|---------------------------|
   oooom  shoobeedooowop    Baaoooom  shoobeedooowop


  01:53
  Bm                          E                 D
e|2----- 2---2- 2----- 2-----|0---0- ----0- ----2- ------|
B|3------3---3--3---3--3-----|0---0------0------3--------|
G|4------4---4--4---4--4-----|1---1------1------2--------|
D|4------4---4--4---4--4-----|2---2------2------0--------|
A|2------2---2--2---2--2-----|2---2------2---------------|
E|---------------------------|0---0------0---------------|
 
e|2----- ------ ------ ------|4----- ------ ------ ------|
B|3--------------------------|5--------------------------|
G|4--------------------------|4--------------------------|
D|---------------------------|---------------------------|
A|---------------------------|---------------------------|
E|---------------------------|---------------------------|
      But  you  money  people minds      hate
         If  want   for    with   that

  Bm                          G   A      F#
e|2----- 2---2- 2---2- 2-----|3---5- ----2- ----2- 2---2-|
B|3------3---3--3---3--3-----|3---5------2------2--2---2-|
G|4------4---4--4---4--4-----|4---6------3------3--3---3-|
D|4------4---4--4---4--4-----|5---7------4------4--4---4-|
A|2------2---2--2---2--2-----|5---7------4------4--4---4-|
E|2--------------------------|3---5------2------2--2---2-|
 
e|5----- ------ ------ ------|7---9- ----6- ------ -----|
B|7--------------------------|8--10------7--------------|
G|7--------------------------|7---9------6--------------|
D|---------------------------|---------------------------|
A|---------------------------|---------------------------|
E|---------------------------|---------------------------|

e|------ ------ ------ ------|------ ------ ------ ----12|
B|---------------------------|---------------------------|
G|---------------------------|---------------------------|
D|---------------------------|---------------------------|
A|---------------------------|---------------------------|
E|---------------------------|---------------------------|
         All can  you  brother    to     wait
           I    tell       you
                    is        have


             E      E7
e|2---2- 2---0-|----0- 0---0- 0---0- 0---0-|
B|5---5--5---0-|----3--3---3--3---3--3---3-|
G|3---3--3---1-|----1--1---1--1---1--1---1-|
D|4---4--4---2-|----2--2---2--2---2--2---2-|
A|4---4--4---2-|----2--2---2--2---2--2---2-|
E|2---2--2---0-|----0--0---0--0---0--0---0-|

e|------ ------|------ ------ ------ ------|
B|-------------|---------------------------|
G|-------------|---------------------------|
D|2------------|---------------------------|
A|-------------|---------------------------|
E|0------------|---------------------------|

e|----12 ------|------ ------ ------ ------|
B|1214-----1412|10--5-----5--5-5-5-5-5-5-5|
G|--B--------R-|---------------------------|
D|-------------|---------------------------|
A|-------------|---------------------------|
E|-------------|---------------------------|
                         Don't    it's   be
                           you       gonna
                              know
                                         Baa

  02:06
  A      A6 ...               D      D6 ...
e|------ ------ ------ ------|2----- 2---2- 2---2- 2-----|
B|2---2--2---2--2---2--2-----|3------3---3--3---3--3-----|
G|2---2--2---2--2---2--2-----|2------4---2--2---2--4-----|
D|2---2--4---2--2---2--4-----|0------0---0--0---0--0-----|
A|0---0--0---0--0---0--0-----|---------------------------|
E|---------------------------|---------------------------|

e|------ ------ ------ ------|------ ------ ------ ------|
B|---------------------------|---------------------------|
G|--------------2---2------2-|--------------2---2------2-|
D|---------------------------|---------------------------|
A|--------------0---0------0-|--------------0---0------0-|
E|---------------------------|---------------------------|

e|5----- ------ ------ ------|----9 ------ ------ ------|
B|5--------------------------|---10---------------------|
G|---------------------------|----9---------------------|
D|---------------------------|---------------------------|
A|---------------------------|---------------------------|
E|---------------------------|---------------------------|
                    Allright           Don't    it's   be
                                         you       gonna
                                            know
  oooom  shoobeedooowop    Baaoooom  shoobeedooowop    Baa

e|------ ------ ------ ------|2---2- 2---2- 2---2- 2-----|
B|2---2--2---2--2---2--2-----|3---3--3---3--3---3--3-----|
G|2---2--2---2--2---2--2-----|2---2--4---2--2---2--4-----|
D|2---2--4---2--2---2--4-----|0---0--0---0--0---0--0-----|
A|0---0--0---0--0---0--0-----|---------------------------|
E|---------------------------|---------------------------|
 
e|------ ------ ------ ------|------ ------ ------ ------|
B|---------------------------|---------------------------|
G|--------------2---2------2-|--------------2---2------2-|
D|---------------------------|---------------------------|
A|--------------0---0------0-|--------------0---0------0-|
E|---------------------------|---------------------------|
 
e|----9------- ------ ------|----9- ----- ------ ------|
B|---10---------------------|---10---------------------|
G|----9---------------------|----9---------------------|
D|---------------------------|---------------------------|
A|---------------------------|---------------------------|
E|---------------------------|---------------------------|
                    Allright           Don't    it's   be
                                         you       gonna
                                            know
  oooom  shoobeedooowop    Baaoooom  shoobeedooowop    Baa

e|------ ------ ------ ------|2---2- 2---2- 2---2- 2-----|
B|2---2--2---2--2---2--2-----|3---3--3---3--3---3--3-----|
G|2---2--2---2--2---2--2-----|2---2--4---2--2---2--4-----|
D|2---2--4---2--2---2--4-----|0---0--0---0--0---0--0-----|
A|0---0--0---0--0---0--0-----|---------------------------|
E|---------------------------|---------------------------|
 
e|------ ------ ------ ------|------ ------ ------ ------|
B|---------------------------|---------------------------|
G|--------------2---2------2-|--------------2---2--------|
D|---------------------------|-------------------------2-|
A|--------------0---0------0-|--------------0---0--------|
E|---------------------------|-------------------------0-|
 
e|----9------- ------ ------|----9- ----- ------ ------|
B|---10---------------------|---10---------------------|
G|----9---------------------|----9---------------------|
D|---------------------------|---------------------------|
A|---------------------------|---------------------------|
E|---------------------------|---------------------------|
                       Allright
  oooom  shoobeedooowop    Baaoooom  shoobeedooowop

e|------ ------ ------ ------|------ ------ ------ ----3-|
B|---------------------------|-------------------------2-|
G|---------------------------|-------------------------2-|
D|-----------0--------------2|-----------0---------------|
A|-------0H2-----------2H4---|-------0H2-----------0H2---|
E|0---0-------------0--------|----0-------------0--------|
                                                       You

  02:26

e|------ ------ ------ ------|------ ------ ------ ------|
B|---------------------------|---------------------------|
G|2---2--4------2---2--4-----|2---2--4---2--2---2--4---2-|
D|2---2--4------2---2--4-----|2---2--4---2--2---2--4---2-|
A|0---0--0------0---0--0-----|0---0--0---0--0---0--0---0-|
E|---------------------------|---------------------------|

e|------ ------ ------ ------|------ ------ ------ ------|
B|---------------------------|---------------------------|
G|---------------------------|---------------------------|
D|7-------------7---7------7-|7-------------7---7------7-|
A|7-------------9---7------9-|7-------------9---7------9-|
E|5-------------5---5------5-|5-------------5---5------5-|
  say you'll the                                   Well
         change constitution

e|------ ------|
B|-------------|
G|2---2--2-----|
D|2---2--4-----|
A|0---0--0-----|
E|-------------|

e|------ ------|
B|-------------|
G|-------------|
D|----7------7-|
A|----7------9-|
E|----5------5-|
         You know


e|2---2- 2----- 2---2- 2---2-|2---2- 2----- 2---2- 2---2-|
B|3---3--3------3---3--3---3-|3---3--3------3---3--3---3-|
G|2---2--4------2---2--4---2-|2---2--4------2---2--4---2-|
D|0---0--0------0---0--0---0-|0---0--0------0---0--0---0-|
A|---------------------------|---------------------------|
E|---------------------------|---------------------------|

e|------ ------ ------ ------|------ ------ ------ ------|
B|---------------------------|---------------------------|
G|---------------------------|---------------------------|
D|7-------------7---7------7-|7-------------7---7------7-|
A|7-------------9---7------9-|7-------------9---7------9-|
E|5-------------5---5------5-|5-------------5---5------5-|

e|------ ----10 ------ ------|------ ------ ------ ------|
B|-----------10-------------|---------------------------|
G|-----------11-------------|---------------------------|
D|---------------------------|---------------------------|
A|---------------------------|---------------------------|
E|---------------------------|---------------------------|
                                  We'd   love   to change
                                     all               your
                                                       Baa


e|------ ------ ------ ------|------ ------ ------ ------|
B|---------------------------|---------------------------|
G|2---2--4------2---2--4---2-|2---2--4------2---2--4---2-|
D|2---2--4------2---2--4---2-|2---2--4------2---2--4---2-|
A|0---0--0------0---0--0---0-|0---0--0------0---0--0---0-|
E|---------------------------|---------------------------|
 
e|------ ------ ------ ------|------ ------ ------ ------|
B|---------------------------|---------------------------|
G|---------------------------|---------------------------|
D|7-------------7---7------7-|7-------------7---7------7-|
A|7-------------9---7------9-|7-------------9---7------9-|
E|5-------------5---5------5-|5-------------5---5------5-|
 
e|------ ----9------- ------|------ ------ ------ ------|
B|----------10--------------|---------------------------|
G|-----------9--------------|---------------------------|
D|---------------------------|---------------------------|
A|---------------------------|---------------------------|
E|---------------------------|---------------------------|
  head                                                 You
  oooom  shoobeedooowop    Baaoooom  shoobeedooowop


  02:41

e|------ ------ ------ ------|------ ------ ------ ------|
B|---------------------------|---------------------------|
G|2---2--2---2--2---2--2---2-|2------2---2--2---2--2---2-|
D|2---2--4---2--2---2--4---2-|2------4---2--2---2--4---2-|
A|0---0--0---0--0---0--0---0-|0------0---0--0---0--0---0-|
E|---------------------------|---------------------------|
 
e|------ ------ ------ ------|------ ------ ------ ------|
B|---------------------------|---------------------------|
G|---------------------------|---------------------------|
D|7-------------7---7------7-|7-------------7---7------7-|
A|7-------------9---7------9-|7-------------9---7------9-|
E|5-------------5---5------5-|5-------------5---5------5-|
  tell   it's   institution                        Well
      me     the


e|------ ------|
B|-------------|
G|2---2--2-----|
D|2---2--4-----|
A|0---0--0-----|
E|-------------|
 
e|------ ------|
B|-------------|
G|-------------|
D|----7------7-|
A|----7------9-|
E|----5------5-|
         You know


e|2---2- 2----- 2---2- 2---2-|2---2- 2----- 2---2- 2---2-|
B|3---3--3------3---3--3---3-|3---3--3------3---3--3---3-|
G|2---2--4------2---2--4---2-|2---2--4------2---2--4---2-|
D|0---0--0------0---0--0---0-|0---0--0------0---0--0---0-|
A|---------------------------|---------------------------|
E|---------------------------|---------------------------|
 
e|------ ------ ------ ------|------ ------ ------ ------|
B|---------------------------|---------------------------|
G|---------------------------|---------------------------|
D|7-------------7---7------7-|--------------7---7------7-|
A|7-------------9---7------9-|--------------9---7------9-|
E|5-------------5---5------5-|5-------------5---5------5-|

e|------ ----10 ----- ------|------ ------ ------ ------|
B|-----------10-------------|---------------------------|
G|-----------11-------------|---------------------------|
D|---------------------------|---------------------------|
A|---------------------------|---------------------------|
E|---------------------------|---------------------------|
                                  You    free your     instead
                                     better     mind
                                                       Baa


e|------ ------ ------ ------|------ ------ ------ ------|
B|---------------------------|---------------------------|
G|---------------------------|---------------------------|
D|2---2--2---2--2---2--2---2-|2---2--2---2--2---2--2-----|
A|2---2--4---2--2---2--4---2-|2---2--4---2--2---2--4-----|
E|0---0--0---0--0---0--0---0-|0---0--0---0--0---0--0-----|
 
e|------ ------ ------ ------|------ ------ ------ ------|
B|---------------------------|---------------------------|
G|---------------------------|---------------------------|
D|2--------------------------|2--------------------------|
A|---------------------------|---------------------------|
E|0--------------------------|0--------------------------|

e|----12 ---12- ---10- ------|----9- ------ ------ ------|
B|---------------------------|-----------------------------|
G|13-------131311--------11-|9--------9----97------0-7B9-|
D|---------------------------|-----------------------------|
A|---------------------------|-----------------------------|
E|---------------------------|-----------------------------|
  oooom  shoobeedooowop    Baaoooom  shoobeedooowop

  02:57
  Bm
e|2----- 2---2- 2---2- 2---2-|0----- 0---0- ----0- 0-----|
B|3------3---3--3---3--3---3-|0------0---0------0--0-----|
G|4------4---4--4---4--4---4-|1------1---1------1--1-----|
D|4------4---4--4---4--4---4-|2------2---2------2--2-----|
A|2------2---2--2---2--2---2-|2------2---2------2--2-----|
E|---------------------------|0------0---0------0--0-----|
 
e|2----- ------ ------ ------|4----- ------ ------ ------|
B|3--------------------------|5--------------------------|
G|4--------------------------|4--------------------------|
D|---------------------------|---------------------------|
A|---------------------------|---------------------------|
E|---------------------------|---------------------------|
 
e|------ ------ ------ ------|------ ------ ------ ------|
B|---------------------------|---------------------------|
GR7P54--4-------------------|---------------------------|
D|---------------------------|---------------------------|
A|---------------------------|---------------------------|
E|---------------------------|---------------------------|
      But  you  carrying   of chairman   Mao
         If  go        pictures

  Bm                          G5  A5     F#
e|2----- 2---2- 2---2- 2-----|3---5- ----2- ----2- 2---2-|
B|3------3---3--3---3--3-----|3---5------2------2--2---2-|
G|4------4---4--4---4--4-----|4---6------3------3--3---3-|
D|4------4---4--4---4--4-----|5---7------4------4--4---4-|
A|2------2---2--2---2--2-----|5---7------4------4--4---4-|
E|---------------------------|3---5------2------2--2---2-|

e|5----- ------ ------ ------|7---9- ----6- ------ -----|
B|7--------------------------|8--10------7--------------|
G|7--------------------------|7---9------6--------------|
D|---------------------------|---------------------------|
A|---------------------------|---------------------------|
E|---------------------------|---------------------------|
      You  gonna  it   anyone anyhow
         ain't  make
                    with


                E7
e|2---2- 2---2-|0---0- 0---0- 0---0- 0---0-|
B|2---2--2---2-|3---3--3---3--3---3--3---3-|
G|3---3--3---3-|1---1--1---1--1---1--1---1-|
D|4---4--4---4-|2---2--2---2--2---2--2---2-|
A|4---4--4---4-|2---2--2---2--2---2--2---2-|
E|2---2--2---2-|0---0--0---0--0---0--0---0-|
 
e|------ ------|------ ------ ------ ------|
B|-------------|---------------------------|
G|-------------|---------------------------|
D|2------------|---------------------------|
A|-------------|---------------------------|
E|0------------|---------------------------|
 
e|------ ------|------ ------ ------ ------|
B|----10-------|10-8-8-8-8-8--8-8-8--8-8-8-|
G|9B11-----9B11|---9-9-9-9-9--9-9-9--9-9-9-|
D|-------------|---9-9-9-9-9--9-9-9--9-9-9-|
A|-------------|---------------------------|
E|-------------|---------------------------|
                         Don't    it's   be
                            you      gonna
                              know
                                         Baa


  03:10

e|------ ------ ------ ------|2---2- 2---2- 2---2- 2-----|
B|2------2---2--2---2--2-----|3---3--3---3--3---3--3-----|
G|2------2---2--2---2--2-----|2---2--4---2--2---2--4-----|
D|2------4---2--2---2--4-----|0---0--0---0--0---0--0-----|
A|0------0---0--0---0--0-----|---------------------------|
E|---------------------------|---------------------------|
 
e|------ ------ ------ ------|------ ------ ------ ------|
B|---------------------------|---------------------------|
G|---------------------------|---------------------------|
D|--------------7---7------7-|7-------------7---7------7-|
A|--------------9---7------9-|7-------------9---7------9-|
E|--------------5---5------5-|5-------------5---5------5-|
 
e|------ ------ ------ ------|----9- ----- ------ ------|
B|8--------------------------|---10---------------------|
G|9--------------------------|----9---------------------|
D|9--------------------------|---------------------------|
A|---------------------------|---------------------------|
E|---------------------------|---------------------------|
                    Allright           Don't    it's   be
                                         you       gonna
                                            know
  oooom  shoobeedooowop    Baaoooom  shoobeedooowop    Baa

e|------ ------ ------ ------|2---2- 2---2- 2---2- 2-----|
B|2---2--2---2--2---2--2-----|3---3--3---3--3---3--3-----|
G|2---2--2---2--2---2--2-----|2---2--4---2--2---2--4-----|
D|2---2--4---2--2---2--4-----|0---0--0---0--0---0--0-----|
A|0---0--0---0--0---0--0-----|---------------------------|
E|---------------------------|---------------------------|
 
e|------ ------ ------ ------|------ ------ ------ ------|
B|---------------------------|---------------------------|
G|---------------------------|---------------------------|
D|7-------------7---7------7-|7-------------7---7------7-|
A|7-------------9---7------9-|7-------------9---7------9-|
E|5-------------5---5------5-|5-------------5---5------5-|
 
e|----9- ------ ------ ------|------ 9---- ------ ------|
B|---10----------------------|------10------------------|
G|----9----------------------|-------9------------------|
D|---------------------------|---------------------------|
A|---------------------------|---------------------------|
E|---------------------------|---------------------------|
                    Allright           Don't    it's   be
                                         you       gonna
                                            know
  oooom  shoobeedooowop    Baaoooom  shoobeedooowop    Baa

e|------ ------ ------ ------|2---2- 2---2- 2---2- 2-----|
B|2---2--2---2--2---2--2---2-|3---3--3---3--3---3--3-----|
G|2---2--2---2--2---2--2---2-|2---2--4---2--2---2--4-----|
D|2---2--4---2--2---2--4---4-|0---0--0---0--0---0--0-----|
A|0---0--0---0--0---0--0---0-|---------------------------|
E|---------------------------|---------------------------|
 
e|------ ------ ------ ------|------ ------ ------ ------|
B|---------------------------|---------------------------|
G|---------------------------|---------------------------|
D|7-------------7---7------7-|7-------------7---7------7-|
A|7-------------9---7------9-|7-------------9---7------9-|
E|5-------------5---5------5-|5-------------5---5------5-|
 
e|------ 9---- ------ ------|----9- ------ ----9-------|
B|------10------------------|---10------------10-------|
G|-------9------------------|----9-------------9-------|
D|---------------------------|---------------------------|
A|---------------------------|---------------------------|
E|---------------------------|---------------------------|
                    Allright
  oooom  shoobeedooowop    Baaoooom  shoobeedooowop

  3/8
  X   X   X

e|------ --|
B|---------|
G|---------|
D|2---2---2|
A|---------|
E|0---0---0|

e|------ ------ ------ ------|------ ------ ------ ------|
B|---------------------------|---------------------------|
G|---------------------------|---------------------------|
D|-----------0--------------2|-----------0-------------0-|
A|-------0H2-----------2H4---|-------0H2-----------2H4---|
E|----0-------------0--------|----0-------------0--------|

                                                       Baa

  03:30

e|------ ------ ------ ------|2----- 2---2- 2---2- 2-----|
B|2------2---2--2---2--2-----|3------3---3--3---3--3-----|
G|2------2---2--2---2--2-----|2------4---2--2---2--4-----|
D|2------4---2--2---2--4-----|0------0---0--0---0--0-----|
A|0------0---0--0---0--0-----|---------------------------|
E|---------------------------|---------------------------|
 
e|------ ------ ------ ------|------ ------ ------ ------|
B|---------------------------|---------------------------|
G|---------------------------|---------------------------|
D|7-------------7---7------7-|7-------------7---7------7-|
A|7-------------9---7------9-|7-------------9---7------9-|
E|5--------------------------|5--------------------------|
                                  Oh     oh     oh     oh
  oooom  shoobeedooowop  Baaoooom    shoobeedooowop    Baa

e|------ ------ ------ ------|2----- 2---2- 2---2- 2-----|
B|2------2---2--2---2--2-----|3------3---3--3---3--3-----|
G|2------4---2--2---2--4-----|2------4---2--2---2--4-----|
D|2------4---2--2---2--4-----|0------0---0--0---0--0-----|
A|0------0---0--0---0--0-----|---------------------------|
E|---------------------------|---------------------------|
 
e|------ ------ ------ ------|------ ------ ------ ------|
B|---------------------------|---------------------------|
G|---------------------------|---------------------------|
D|7-------------7---7------7-|7-------------7---7------7-|
A|7-------------9---7------9-|7-------------9---7------9-|
E|5--------------------------|5--------------------------|

e|------ ------ ------ ------|------ ------ ------ ------|
B|-------------------------5-|----5------5-------------5-|
G|-------------------------6-|----6------6------6------6-|
D|-------------------------7-|----7------7------7------7-|
A|---------------------------|------------------7--------|
E|---------------------------|---------------------------|
      oh     oh     oh     oh     oh     oh     allright
  oooom  shoobeedooowop    Baaoooom  shoobeedooowop    Baa

e|------ ------ ------ ------|2---2- 2---2- 2---2- 2-----|
B|2------2---2--2---2--2-----|3---3--3---3--3---3--3-----|
G|2------4---2--2---2--4-----|2---2--4---2--2---2--4-----|
D|2------4---2--2---2--4-----|0---0--0---0--0---0--0-----|
A|0------0---0--0---0--0-----|---------------------------|
E|---------------------------|---------------------------|
 
e|------ ------ ------ ------|------ ------ ------ ------|
B|---------------------------|---------------------------|
G|---------------------------|---------------------------|
D|7-------------7---7------7-|7-------------7---7------7-|
A|7-------------9---7------9-|7-------------9---7------9-|
E|5--------------------------|5--------------------------|

e|------ ------ ------ ------|------ ------ ------ ------|
B|---------------------------|---------------------------|
G|---------------------------|---------------------7-8---|
D|---------------------------|---------------------------|
A|---------------------------|---------------------------|
E|---------------------------|---------------------------|
                         allright               allright
  oooom  shoobeedooowop    Baaoooom  shoobeedooowop    Baa

  03:44

e|------ ------ ------ ------|2---2- 2---2- 2---2- 2-----|
B|2------2---2--2---2--2-----|3---3--3---3--3---3--3-----|
G|2------4---2--2---2--4-----|2---2--4---2--2---2--4-----|
D|2------4---2--2---2--4-----|0---0--0---0--0---0--0-----|
A|0------0---0--0---0--0-----|---------------------------|
E|---------------------------|---------------------------|  ...

e|------ ------ ------ ------|------ ------ ------ ------|
B|---------------------------|---------------------------|
G|---------------------------|---------------------------|
D|7-------------7---7------7-|7-------------7---7------7-|
A|7-------------9---7------9-|7-------------9---7------9-|
E|5--------------------------|5--------------------------|  ...

e|------ ------ ------ ------|------ ------ ------ ------|
B|---------5----5--7P5-------|-------7P5----5------------|
G|-----------7--5--7P5-------|-------7P5----5------------|
D|-------7-------------------|----7------7------7--------|
A|---------------------------|---------------------------|
E|---------------------------|---------------------------|
         allright      allright      allright      allright ...
  oooom  shoobeedooowop    Baaoooom  shoobeedooowop


e|------ ------ ------ ------|------ ------ ------ ------|
B|-------7-5-----------------|-------7-5----5------------|
G|-------7-5----7B9R75-5H7---|----5----5----5---7-------|
D|----7------7-------P-------|-----------7---------------|
A|---------------------------|---------------------------|
E|---------------------------|---------------------------|

  03:53

e|------ ------ ------ ------|------ ------ ------ ------|
B|-------7-5----5------------|----7--7-5----7-5----7-5---|
G|-------7-5----5---7--------|----7--7-5----7-5----7-5---|
D|----7------7---------------|-----------7------7------7-|
A|---------------------------|---------------------------|
E|---------------------------|---------------------------|

e|------ ------ ------ ------|------ ------ ------ ------|
B|----5--------------------5-|---------------------------|
G|----5--------------------5-|-----------------------7P5-|
D|7----------7---------------|5----------5------7--------|
A|---------------------------|----7----------------------|
E|---------------------------|---------------------------|

e|------ ------ ------ ------|------ ------ ------ ------|
B|---------------------8-----|------------------8--------|
G|------------------/9--97P5|7--------------/9----97P5-|
D|7--------------------------|--7P5--7------------------7|
A|---------------------------|---------------------------|
E|---------------------------|---------------------------|
                              ......... Fade out ........


e|------ ------ ------ ------|------ ------ ------ ------|
B|-----------8---------------|8-------------7------------|
G|5-------/9----97P5--5-7/9-|-97P5----5---7------------|
D|----7--------------7-------|-------7-------------------|
A|---------------------------|---------------------------|
E|---------------------------|---------------------------|
  .......................................................


e|------ ------ ------ ------|------ ------ ------ ------|
B|-------7-5-----------------|---------------------------|
G|-------7-5-----------------|---------------------------|
D|----7----------------------|---------------------------|
A|---------------------------|---------------------------|
E|---------------------------|---------------------------|
  .............


B  Bend
R  Release
/  slide up
  slide down
H  hammer-on
P  pull-off
~  vibrato
+  harmonic
x  Mute note
.  Play note like a dot in standard notation
^  Ties two notes together
(. Pause

Тональность:

Это должно быть в ТОП-листе! - Топ-лист композиций



Назад
Рекомендуем посмотреть другие песни исполнителя «Beatles»:

  • Комменты Fb ()
  • Комменты ВК



Добавить в Избранное Браузера
Сохранить здесь Очистить


x

0


+
-

+
-

-

Авторизация





Зарегистрироваться

M

Дата и время

  • 10:26:07
     

Социальные ссылки


Наши приложения

  • Muzbank App Play Market
  • Muzbank Amazon App