MUZBANK


МУЗЫКАЛЬНО-ИНФОРМАЦИОННЫЙ БАНК





BBeatles • Yesterday (аккорды и текст - chords & lyrics)


3814

Print

Видео «Yesterday (Beatles)»

Видео клипы к песне подбираются автоматически сайтом youtube. Возможны некоторые несоответствия клипов песне.

↑ Спрятать рекламу ↑





C         E7                         Am        G F
Yesterday, all my trouble seemed so far away
         G                    C
Now it looks as though there here to stay
    Am   D       F      C
Oh, I believe in yesterday.

Sudenly, I`m not half the man I used to be
There`s shadow hanging over me
Oh, yesterday come suddenle.
 
E7       Am
Why she had to go
          F        G       C
I donn`t know she would`t say.
I said somthing wrong now I long for yesterday.
 
Yesterday, love was such an easy game to play.
Now I need a place to hide away
Oh, I believe in yesterday.

M-m-m...

Классическая обработка для шестиструнной гитары:

Куплеты:
|------------0------------------0-2--4-5--7-8----7-5-------------------|
|--3-p1-1----------1-----------------------------5---(5)---------------|
|--0-------0----0-----0--------------------------5-----------5-----0---|
|--2------------------------4------------------------------7----5------|
|--3---------------------2-----------------------0---------------------|
|------------------------------------0---------------------------------|


|--------5-5--3--------1--0-0-----------0-------------0---0----|
|---------------6-5-3------------3--1------3------1------------|
|-----5----------------0----------------------2---1------------|
|--3-------3--3------------------------------------------------|
|----------------------3---------2--0----------------------3---|
|---------------------------------------3--2------1------------|

Припев:

|--0-------------0----------------5-----7-----8---7--5----7----------7--
|-----0-------------0----------------------------------------10---8-----
|--------7---------------------------5-----5----------------------------
|-----------7---------------------------6-----5-------------------0-----
|---------------------------------0-----------------------8----------4--
|--7-------------0------2--4--------------------------------------------



 1.
|--0--------------------|
|-----1-------------1---|
|-------0--------0------|
|----------2---2--------|
|--3---------3----------|
|-----------------------|

 2.
|--8--------1---0-------|
|-----8-----------------|
|-----------------------|
|-----------------------|
|-----------------------|
|--8--------3-----------|



 

Тональность:

Это должно быть в ТОП-листе! - Топ-лист композиций



Назад
Рекомендуем посмотреть другие песни исполнителя «Beatles»:

  • Комменты Fb ()
  • Комменты ВК



Добавить в Избранное Браузера
Сохранить здесь Очистить


x

0


+
-

+
-

-

Авторизация





Зарегистрироваться

M

Дата и время

  • 07:47:44
     

Социальные ссылки


Наши приложения

  • Muzbank App Play Market
  • Muzbank Amazon App