MUZBANK


МУЗЫКАЛЬНО-ИНФОРМАЦИОННЫЙ БАНК





ББи-2 • Полковнику никто не пишет (аккорды и текст - chords & lyrics)


3258

Print

Видео «Полковнику никто не пишет (Би-2)»

Видео клипы к песне подбираются автоматически сайтом youtube. Возможны некоторые несоответствия клипов песне.

↑ Спрятать рекламу ↑






e|--6------5-----------|---------6-|--6------5--------|---|
H|-------------------6-|-4---4-6---|------------------|---|
G|----7-7----7-7---7---|-----------|----7-8----8-8--8-|-7-|

             Gm
Большие города
            Eb
Пустые поезда
                Cm
Ни берега, ни дна
                 D
Все начинать сначала

Холодная война
И время как вода
Он не сошел с ума
Ты ничего не знала

	              Gm          Eb 
	Полковнику никто не пишет
	              Gm      F
	Полковника никто не ждет

На линии огня
Пустые города
В которых никогда
Ты раньше не бывала

И рвутся поезда
На тонкие слова
Он не сошел с ума
Ты ничего не знала




/Куплеты/
|----------------------||---------------------------|
|----------------------||---------------------------|
|----------------------||*--------------------------|
|----------------------||*--------5-----------5-----|
|----------------------||---5--5--5--5--5--5--5--5--|
|---------------10/----||---3--3--3--3--3--3--3--3--|

--------------------------|--------------------------|
--------------------------|--------------------------|
--------------------------|--------8-----------8-----|
--------5-----------5-----|--8--8--8--8--8--8--8--8--|
--5--5--5--5--5--5--5--5--|--6--6--6--6--6--6--6--6--|
--3--3--3--3--3--3--3--3--|--------------------------|

--------------------------|--------------------------|
--------------------------|--------------------------|
--------8-----------8-----|--------5-----------5-----|
--8--8--8--8--8--8--8--8--|--5--5--5--5--5--5--5--5--|
--6--6--6--6--6--6--6--6--|--3--3--3--3--3--3--3--3--|
--------------------------|--------------------------|

--------------------------|--------------------------|
--------------------------|--------------------------|
--------5-----------5-----|--------7-----------7-----|
--5--5--5--5--5--5--5--5--|--7--7--7--7--7--7--7--7--|
--3--3--3--3--3--3--3--3--|--5--5--5--5--5--5--5--5--|
--------------------------|--------------------------|
 
--------------------------| 
--------------------------| 
--------7-----------7-----| 
--7--7--7--7--7--7--7--7--| 
--5--5--5--5--5--5--5--5--| 
--------------------------| 


/Припев/

--------------------------|--------------------------|
--------------------------|--------------------------|
--------------------------|--------------------------|
--------5-----------5-----|--------5-----------5-----|
--5--5--5--5--5--5--5--5--|--5--5--5--5--5--5--5--5--|
--3--3--3--3--3--3--3--3--|--4--4--3--3--3--3--3--3--|

--------------------------|--------------------------|
--------------------------|--------------------------|
--------8-----------8-----|--------8-----------8-----|
--8--8--8--8--8--8--8--8--|--8--8--8--8--8--8--8--8--|
--6--6--6--6--6--6--6--6--|--6--6--6--6--6--6--6--6--|
--------------------------|--------------------------|


--------------------------|--------------------------|
--------------------------|--------------------------|
--------------------------|--------------------------|
--------5-----------5-----|--------5-----------5-----|
--5--5--5--5--5--5--5--5--|--5--5--5--5--5--5--5--5--|
--3--3--3--3--3--3--3--3--|--4--4--3--3--3--3--3--3--|

--------------------------|--------------------------|
--------------------------|--------------------------|
--2--2--2--2--3--3--3--3--|--------------------------|
--3--3--3--3--1--1--1--1--|--3--3--3--3--3--3--3--3--|
--3--3--3--3--3--3--3--3--|--3--3--3--3--3--3--3--3--|
--1--1--1--1--1--1--1--1--|--1--1--1--1--1--1--1--1--|



Завершение на аккордах: Gm F Bb D


2 гитара (Шура):

/Куплеты/
--------------------------|--------------------------|
--------------------------|--------------------------|
--------------------------|--------------------------|
--------5-----------5-----|--------5-----------5-----|
--5--5--5--5--5--5--5--5--|--5--5--5--5--5--5--5--5--|
--------------------------|--------------------------|

--------------------------|--------------------------|
--------------------------|--------------------------|
--------8-----------8-----|--------8-----------8-----|
--8--8--8--8--8--8--8--8--|--8--8--8--8--8--8--8--8--|
--------------------------|--------------------------|
--------------------------|--------------------------|
 
--------------------------|--------------------------|
--------------------------|--------------------------|
--------5-----------5-----|--------5-----------5-----|
--5--5--5--5--5--5--5--5--|--5--5--5--5--5--5--5--5--|
--------------------------|--------------------------|
--------------------------|--------------------------|
 
--------------------------|
--------------------------|
--------7-----------7--7--|
--7--7--7--7--7--7--7--7--|
--------------------------|
--------------------------|


/Припев/
  
|------------------------|---------------------|
|------------------------|---------------------|
|---------------5--3-----|---------------------|
|------------5--------5--|---------------------|
|---------5--------------|--5-------------5----|
|------------------------|---------------------|

--------------------------|---------------------|------------------------|
--------------------------|---------------------|------------------------|
--------------------------|---------------------|---------------5--3-----|
--------------------------|---------------------|------------5--------5--|
--6----5----------6S-8----|--6------------------|---------5--------------|
--------------------------|---------------------|------------------------|

---------------------|-----------------6----|--6----5--5---------5S-6--|
---------------------|----------------------|--------------------------|
---------------------|----------------------|--------------------------|
---------------------|----------------------|--------------------------|
--5-------------5----|--6----5--------------|--------------------------|
---------------------|----------------------|--------------------------|

                     /Соло 1/  
--6----5--5-----------|---------6-------------5--|--x----6-----8-----10----|
----------------------|--4h--6---------4h--6-----|-------4-----6------8----|
----------------------|--------------------------|-------------------------|
----------------------|--------------------------|-------------------------|
----------------------|--------------------------|-------------------------|
----------------------|--------------------------|-------------------------|

 
---------6-------------5--|--x----6-----8-----6----|---------6-------------5--|
--4h--6---------4h--6-----|-------4-----6-----6----|--4h--6---------4h--6-----|
--------------------------|------------------------|--------------------------|
--------------------------|------------------------|--------------------------|
--------------------------|------------------------|--------------------------|
--------------------------|------------------------|--------------------------|

                                                 /Соло 2/  
--x----6-----8-----10----|--x-----------------|--6---------------------|
-------4-----6------8----|--x-----------------|------------------------|
-------------------------|--------------------|---------7--7-----------|
-------------------------|--------------------|------------------------|
-------------------------|--------------------|------------------------|
-------------------------|--------------------|------------------------|

--5--------------------|---------------------6--|--x-----------------|
------------------6----|--4-----------4h--6-----|--------------------|
-------7--7------------|------------------------|--------------------|
-----------------------|------------------------|--------------------|
-----------------------|------------------------|--------------------|
-----------------------|------------------------|--------------------|


--6--------------------|--5-------------------|-----------------------|
-----------------------|----------------------|-----------------------|
-------7h--8-----------|-------8--8-----------|--7-------------7S--19-|
-----------------------|----------------------|-----------------------|
-----------------------|----------------------|-----------------------|
-----------------------|----------------------|-----------------------|

------------------------|---------------------|-----------------6----|
------------------------|---------------------|----------------------|
---------------5--3-----|---------------------|----------------------|
------------5--------5--|---------------------|----------------------|
---------5--------------|--5-------------5----|--6----5--------------|
------------------------|---------------------|----------------------|


                           /Завершение/ 
--6----5--5---------5S-6--|--6---------------------------|
--------------------------|------------------------------|
--------------------------|------------------------------|
--------------------------|------------------------------|
--------------------------|--------------12--13--12--13--|
--------------------------|----------10------------------|

-------------------------------|-------------------------------|
-------------------------------|-------------------------------|
-------------------------------|-------------------------------|
--10---------------------------|--10-------------------10------|
---------------12--13--12--13--|---------------12--13------13--|
-----------10------------------|-----------10------------------|

-------------------------------|-------------------------------|
-------------------------------|-------------------------------|
-------------------------------|-------------------------------|
--10---------------------------|--10-------------------10------|
---------------12--13--12--13--|---------------12--13------13--|
-----------10------------------|-----------10------------------|
 
-------------------------------|---------------------------------|
-------------------------------|---------------------------------|
-------------------------------|---------------------------------|
-----------15--13--12--10--12--|---------------------------------|
--12---------------------------|--12-----------12--13--12--13--10|
-------------------------------|-----------10--------------------|





Тональность:

Это должно быть в ТОП-листе! - Топ-лист композиций



Назад
Рекомендуем посмотреть другие песни исполнителя «Би-2»:

  • Комменты Fb ()
  • Комменты ВК



Добавить в Избранное Браузера
Сохранить здесь Очистить


x

0


+
-

+
-

-

Авторизация





Зарегистрироваться

M

Дата и время

  • 07:12:48
     

Социальные ссылки


Наши приложения

  • Muzbank App Play Market
  • Muzbank Amazon App