MUZBANK


МУЗЫКАЛЬНО-ИНФОРМАЦИОННЫЙ БАНК





ББи-2 • Вечная призрачная встречная (аккорды и текст - chords & lyrics)


3299

Print

Видео «Вечная призрачная встречная (Би-2)»

Видео клипы к песне подбираются автоматически сайтом youtube. Возможны некоторые несоответствия клипов песне.

↑ Спрятать рекламу ↑





/Вступление:/ Hm | Hm | Hm | Hm

  Hm
Я сам не свой,
Мой след потерян.
    G
Я с головой
В песчинках времени
 Em
Упал на дно,
И метроном
   F#7
Считает в тишине.

Пока все ждут
Прихода истины,
Святая ложь
Звучит всё искренней,
Не прячет взгляд,
И травит яд
Соблазном душу мне.

/Проигрыш:/ Hm | Hm | D | D | G | G | Em7/F# | F#7

Я сделал всё,
И всё оставил,
В моей игре
Почти нет правил,
И мой герой
Не держит строй
И лезет на рожон.

Я сбыл мечты
И откровения,
В руках судьбы
Моё спасение.
Мой главный нерв
Продет в иглу, 
   F#7              Hm F#7
Предельно обнажен.

/Припев:/
     Hm
     Вечная
                    D
     Призрачная, встречная
               G
     Сможет уберечь меня -
                 Em7/F#
     Обыденный сюжет
            F#7
     Всех религий.

     Предана
     Мне, и мною предана,
     И сполна изведала
     Рождение и смерть
     В каждом миге.

/Проигрыш:/ Hm | Hm | Hm | Hm
            Hm | Hm | F# | F# | G | G | Em7/F# | F#7  } 2 раза

     Вечная
     Призрачная, встречная
     Сможет уберечь меня -
     Обыденный сюжет
     Всех религий.

     Предана
     Мне, и мною предана,
     И сполна изведала
     Рождение и смерть
     В каждом миге…

/Кода:/ Hm | Hm | D/F# | D/F# | G | G | Em7/F# | F#7  } 3 раза




Проигрыш:

D# ||--------------------------|-------------------------|
A# ||--------3--3--------2--2--|-------------------------|
F# ||--------------------------|--------4--4-------------|
C# ||--4--4--------4--4--------|--4--4----------4-----4--|
G# ||--------------------------|-------------------5-----|
D# ||--------------------------|-------------------------|



Вступление:
--------------------------|--------------------------|
--------------------------|--------------------------|
--------------------------|--------------------------|
--------------------------|--------------------------|
--9--9--9--9--9--9--9--9--|--9--9--9--9--9--9--9--9--|
--7--7--7--7--7--7--7--7--|--7--7--7--7--7--7--7--7--|

--------------------------|--------------------------|
--------------------------|--------------------------|
--------------------------|--------------------------|
--7--7--7--7--7--7--7--7--|--7--7--7--7--7--7--7--7--|
--5--5--5--5--5--5--5--5--|--5--5--5--5--5--5--5--5--|
--------------------------|--------------------------|

--------------------------|--------------------------|
--------------------------|--------------------------|
--------------------------|--------------------------|
--0--0--0--0--0--0--0--0--|--------------------------|
--5--5--5--5--5--5--5--5--|--5--5--5--5--5--5--5--5--|
--3--3--3--3--3--3--3--3--|--3--3--3--3--3--3--3--3--|
 
--------------------------|-------------------||
--------------------------|-------------------||
--------------------------|-------------------||
--------------------------|--4----------------||
--2--2--2--2--2--2--2--2--|--4----------------||
--------------------------|--2----------------||

 Куплеты: 
|--------------------|--------------------|--------------------|--------------------|
|--------------------|--------------------|--------------------|--------------------|
|--------------------|--------------------|--------------------|--------------------|
|--4--4-----4--4-----|--4--4-----4--4-----|--5--5-----5--5-----|--0--0-----0--0-----|
|--2--2--x--2--2-----|--2--2--x--2--2-----|--5--5--x--5--5-----|--5--5--x--5--5-----|
|--------x-----------|--------x-----------|--3--3--x--3--3-----|--3--3--x--3--3-----|

-----------------------|-----------------------|-----------------------|
-----------------------|-----------------------|-----------------------|
-----------------------|-----------------------|-----------------------|
-----------------------|-----------------------|-----------------------|
--2--2--x--2--2--------|--2--2--x--2--2--------|--4--4--x--4--4--------|
--------x--------------|--------x--------------|--2--2--x--2--2--------|

--------------------------|--------------------------|
--------------------------|--------------------------|
--------------------------|--------------------------|
--------------------------|--4--4--4--4--4--4--4--4--|
--4--4--4--4--4--4--4--4--|--2--2--2--2--2--2--2--2--|
--2--2--2--2--2--2--2--2--|--------------------------|

--------------------------|--------------------------|
--------------------------|--------------------------|
--------------------------|--------------------------|
--4--4--4--4--4--4--4--4--|--------------------------|
--2--2--2--2--2--2--2--2--|--5--5--5--5--5--5--5--5--|
--------------------------|--3--3--3--3--3--3--3--3--|

--------------------------|--------------------------|
--------------------------|--------------------------|
--------------------------|--------------------------|
--------------------------|--------------------------|
--5--5--5--5--5--5--5--5--|--2--2--2--2--2--2--2--2--|
--3--3--3--3--3--3--3--3--|--------------------------|

--------------------------|--------------------------|
--------------------------|--------------------------|
--------------------------|--------------------------|
--------------------------|--------------------------|
--2--2--2--2--2--2--2--2--|--4--4--4--4--4--4--4--4--|
--------------------------|--2--2--2--2--2--2--2--2--|

--------------------------|-------|
--------------------------|-------|
--------------------------|-------|
--------------------------|-------|
--4--4--4--4--4--4--4--4--|-------|
--2--2--2--2--2--2--2--2--|-------|



Тональность:

Это должно быть в ТОП-листе! - Топ-лист композиций



Назад
Рекомендуем посмотреть другие песни исполнителя «Би-2»:

  • Комменты Fb ()
  • Комменты ВК



Добавить в Избранное Браузера
Сохранить здесь Очистить


x

0


+
-

+
-

-

Авторизация





Зарегистрироваться

M

Дата и время

  • 07:41:47
     

Социальные ссылки


Наши приложения

  • Muzbank App Play Market
  • Muzbank Amazon App