MUZBANK


МУЗЫКАЛЬНО-ИНФОРМАЦИОННЫЙ БАНК





BBlack Sabbath • Back Street Kids (аккорды и текст - chords & lyrics)


378

Print

Видео «Back Street Kids (Black Sabbath)»

Видео клипы к песне подбираются автоматически сайтом youtube. Возможны некоторые несоответствия клипов песне.

↑ Спрятать рекламу ↑






E|-------------------------------------------------|
B|---------------------------------------------12~-|
G|---------------------------------------------12~-|
D|---------------------------------------------12~-|
A|7-5h7-7-7-7-7-7-5h7-7-7-7-7-7-5h7-7-7-77-7-7-----|
E|0-0-0-0-0-0-0-0-0-0-0-0-0-0-0-0-0-0-0-00-0-0-----|

E|------------------------------------------------|
B|--------------------------------------------12~-|
G|--------------------------------------------12~-|
D|--------------------------------------------12~-|
A|7-5h7-7-7-7-7-7-5h7-7-7-7-7-7-5h7-7-7-7-7-7-----|
E|0-0-0-0-0-0-0-0-0-0-0-0-0-0-0-0-0-0-0-0-0-0-----|

(Guitar 1)

E|------------------------------------------------------------|
B|------------------------------------------------------------|
G|9~~~~~~~~~~~~~~-------------------9⁄11------7-9~~~~~~~~~~~~-|
D|------------------------------------------------------------|
A|7~~~~~~~~~~~~~~-------------------10⁄9------5-7~~~~~~~~~~~~-|
E|------------------------------------------------------------|

(Guitar 2)

E|-------------------------------------------------|
B|---------------------------------------------12~-|
G|---------------------------------------------12~-|
D|---------------------------------------------12~-|
A|7-5h7-7-7-7-7-7-5h7-7-7-7-7-7-5h7-7-7-77-7-7-----|
E|0-0-0-0-0-0-0-0-0-0-0-0-0-0-0-0-0-0-0-00-0-0-----|

E|-------------------------------------------------|
B|---------------------------------------------12~-|
G|---------------------------------------------12~-|
D|---------------------------------------------12~-|
A|-7-5h7-7-7-7-7-7-5h7-7-7-7-7-7-5h7-7-7-7-7-7-----|
E|-0-0-0-0-0-0-0-0-0-0-0-0-0-0-0-0-0-0-0-0-0-0-----|

(Guitar 1)

E|-----------------------------------------------------------------------|
B|-----------------------------------------------------------------------|
G|-7-9-11-7~~~~~~~~~~~~~~~----------6------7/9-12-9~~~~~~~~~~~~~~~~~~~~~-|
D|-----------------------------------------------------------------------|
A|-5-7-9--5~~~~~~~~~~~~~~~----------4------5/7-10-7~~~~~~~~~~~~~~~~~~~~~-|
E|-----------------------------------------------------------------------|

(Guitar 2)

E A D⁄C#
E|------------------------------------------------|
B|------------------------------------------------|
G|------------------------------------------------|
D|-------------------------------------9------7⁄6-|
A|--------7--------------------7-------7---7--5⁄4-|
E|-7/9~~~---9-8-7~~--7--8--9~~---9-8-7-----5------|

(Guitar 1)

E|-------------------------------------------------|
B|---------------------------------------------12~-|
G|---------------------------------------------12~-|
D|---------------------------------------------12~-|
A|7-5h7-7-7-7-7-7-5h7-7-7-7-7-7-5h7-7-7-77-7-7-----|
E|0-0-0-0-0-0-0-0-0-0-0-0-0-0-0-0-0-0-0-00-0-0-----|

E|------------------------------------------------|
B|--------------------------------------------12~-|
G|--------------------------------------------12~-|
D|--------------------------------------------12~-|
A|7-5h7-7-7-7-7-7-5h7-7-7-7-7-7-5h7-7-7-7-7-7-----|
E|0-0-0-0-0-0-0-0-0-0-0-0-0-0-0-0-0-0-0-0-0-0-----|

(Guitar 1)

E|------------------------------------------------------------|
B|------------------------------------------------------------|
G|9~~~~~~~~~~~~~~-------------------9⁄11------7-9~~~~~~~~~~~~-|
D|------------------------------------------------------------|
A|7~~~~~~~~~~~~~~-------------------10⁄9------5-7~~~~~~~~~~~~-|
E|------------------------------------------------------------|
(Guitar 2)

E|-------------------------------------------------|
B|---------------------------------------------12~-|
G|---------------------------------------------12~-|
D|---------------------------------------------12~-|
A|7-5h7-7-7-7-7-7-5h7-7-7-7-7-7-5h7-7-7-77-7-7-----|
E|0-0-0-0-0-0-0-0-0-0-0-0-0-0-0-0-0-0-0-00-0-0-----|

E|-------------------------------------------------|
B|---------------------------------------------12~-|
G|---------------------------------------------12~-|
D|---------------------------------------------12~-|
A|-7-5h7-7-7-7-7-7-5h7-7-7-7-7-7-5h7-7-7-7-7-7-----|
E|-0-0-0-0-0-0-0-0-0-0-0-0-0-0-0-0-0-0-0-0-0-0-----|
I'm just another back street kid

E|-------------------------------------------------|
B|---------------------------------------------12~-|
G|---------------------------------------------12~-|
D|---------------------------------------------12~-|
A|7-5h7-7-7-7-7-7-5h7-7-7-7-7-7-5h7-7-7-77-7-7-----|
E|0-0-0-0-0-0-0-0-0-0-0-0-0-0-0-0-0-0-0-00-0-0-----|

E|-------------------------------------------------|
B|---------------------------------------------12~-|
G|---------------------------------------------12~-|
D|---------------------------------------------12~-|
A|-7-5h7-7-7-7-7-7-5h7-7-7-7-7-7-5h7-7-7-7-7-7-----|
E|-0-0-0-0-0-0-0-0-0-0-0-0-0-0-0-0-0-0-0-0-0-0-----|
Rock and Roll music is the only thing I really dig.

E|-------------------------------------------------|
B|---------------------------------------------12~-|
G|---------------------------------------------12~-|
D|---------------------------------------------12~-|
A|7-5h7-7-7-7-7-7-5h7-7-7-7-7-7-5h7-7-7-77-7-7-----|
E|0-0-0-0-0-0-0-0-0-0-0-0-0-0-0-0-0-0-0-00-0-0-----|

E|-------------------------------------------------|
B|---------------------------------------------12~-|
G|---------------------------------------------12~-|
D|---------------------------------------------12~-|
A|-7-5h7-7-7-7-7-7-5h7-7-7-7-7-7-5h7-7-7-7-7-7-----|
E|-0-0-0-0-0-0-0-0-0-0-0-0-0-0-0-0-0-0-0-0-0-0-----|
Can't stop the music flowin' 'round inside my head

E|-------------------------------------------------|
B|---------------------------------------------12~-|
G|---------------------------------------------12~-|
D|---------------------------------------------12~-|
A|7-5h7-7-7-7-7-7-5h7-7-7-7-7-7-5h7-7-7-77-7-7-----|
E|0-0-0-0-0-0-0-0-0-0-0-0-0-0-0-0-0-0-0-00-0-0-----|

E|-------------------------------------------------|
B|---------------------------------------------12~-|
G|---------------------------------------------12~-|
D|---------------------------------------------12~-|
A|-7-5h7-7-7-7-7-7-5h7-7-7-7-7-7-5h7-7-7-7-7-7-----|
E|-0-0-0-0-0-0-0-0-0-0-0-0-0-0-0-0-0-0-0-0-0-0-----|
I'm a rock and roll soldier gonna play it until I'm dead.

CHOURSE
E A D⁄C#
E|------------------------------------------------|
B|------------------------------------------------|
G|------------------------------------------------|
D|-------------------------------------9------7⁄6-|
A|--------7--------------------7-------7---7--5⁄4-|
E|-7/9~~~---9-8-7~~--7--8--9~~---9-8-7-----5------|
Nobody I know will ever take my rock and roll away from me

E|-------------------------------------------------|
B|---------------------------------------------12~-|
G|---------------------------------------------12~-|
D|---------------------------------------------12~-|
A|7-5h7-7-7-7-7-7-5h7-7-7-7-7-7-5h7-7-7-77-7-7-----|
E|0-0-0-0-0-0-0-0-0-0-0-0-0-0-0-0-0-0-0-00-0-0-----|

E|-------------------------------------------------|
B|---------------------------------------------12~-|
G|---------------------------------------------12~-|
D|---------------------------------------------12~-|
A|-7-5h7-7-7-7-7-7-5h7-7-7-7-7-7-5h7-7-7-7-7-7-----|
E|-0-0-0-0-0-0-0-0-0-0-0-0-0-0-0-0-0-0-0-0-0-0-----|

E|-------------------------------------------------|
B|---------------------------------------------12~-|
G|---------------------------------------------12~-|
D|---------------------------------------------12~-|
A|7-5h7-7-7-7-7-7-5h7-7-7-7-7-7-5h7-7-7-77-7-7-----|
E|0-0-0-0-0-0-0-0-0-0-0-0-0-0-0-0-0-0-0-00-0-0-----|

E|-------------------------------------------------|
B|---------------------------------------------12~-|
G|---------------------------------------------12~-|
D|---------------------------------------------12~-|
A|-7-5h7-7-7-7-7-7-5h7-7-7-7-7-7-5h7-7-7-7-7-7-----|
E|-0-0-0-0-0-0-0-0-0-0-0-0-0-0-0-0-0-0-0-0-0-0-----|
Sittin' in the back seat, closed inside a limousine

E|-------------------------------------------------|
B|---------------------------------------------12~-|
G|---------------------------------------------12~-|
D|---------------------------------------------12~-|
A|7-5h7-7-7-7-7-7-5h7-7-7-7-7-7-5h7-7-7-77-7-7-----|
E|0-0-0-0-0-0-0-0-0-0-0-0-0-0-0-0-0-0-0-00-0-0-----|

E|-------------------------------------------------|
B|---------------------------------------------12~-|
G|---------------------------------------------12~-|
D|---------------------------------------------12~-|
A|-7-5h7-7-7-7-7-7-5h7-7-7-7-7-7-5h7-7-7-7-7-7-----|
E|-0-0-0-0-0-0-0-0-0-0-0-0-0-0-0-0-0-0-0-0-0-0-----|
Getting in a taxi, can't remember where I've been

E|-------------------------------------------------|
B|---------------------------------------------12~-|
G|---------------------------------------------12~-|
D|---------------------------------------------12~-|
A|7-5h7-7-7-7-7-7-5h7-7-7-7-7-7-5h7-7-7-77-7-7-----|
E|0-0-0-0-0-0-0-0-0-0-0-0-0-0-0-0-0-0-0-00-0-0-----|

E|-------------------------------------------------|
B|---------------------------------------------12~-|
G|---------------------------------------------12~-|
D|---------------------------------------------12~-|
A|-7-5h7-7-7-7-7-7-5h7-7-7-7-7-7-5h7-7-7-7-7-7-----|
E|-0-0-0-0-0-0-0-0-0-0-0-0-0-0-0-0-0-0-0-0-0-0-----|
Playin' my music sittin' in my hotel room

E|-------------------------------------------------|
B|---------------------------------------------12~-|
G|---------------------------------------------12~-|
D|---------------------------------------------12~-|
A|7-5h7-7-7-7-7-7-5h7-7-7-7-7-7-5h7-7-7-77-7-7-----|
E|0-0-0-0-0-0-0-0-0-0-0-0-0-0-0-0-0-0-0-00-0-0-----|

E|-------------------------------------------------|
B|---------------------------------------------12~-|
G|---------------------------------------------12~-|
D|---------------------------------------------12~-|
A|-7-5h7-7-7-7-7-7-5h7-7-7-7-7-7-5h7-7-7-7-7-7-----|
E|-0-0-0-0-0-0-0-0-0-0-0-0-0-0-0-0-0-0-0-0-0-0-----|
Writtin' 'bout the stars and thinkin' 'bout the hand of doom.

CHOURSE
E A D⁄C#
E|------------------------------------------------|
B|------------------------------------------------|
G|------------------------------------------------|
D|-------------------------------------9------7⁄6-|
A|--------7--------------------7-------7---7--5⁄4-|
E|-7/9~~~---9-8-7~~--7--8--9~~---9-8-7-----5------|
Nobody I know will ever take my rock and roll away from me

BRIDGE (1:46)

E|2-2--7--9⁄(5)--7-7--7-7--7-7--7⁄(2)---22-2--7--9⁄(5)--7-7--7-7--7-7--7⁄(2)-|
B|3-3--8-10⁄(6)--8-8--8-8--8-8--8⁄(3)---33-3--8-10⁄(6)--8-8--8-8--8-8--8⁄(3)-|
G|2-2--7--9⁄(5)--7-7--7-7--7-7--7⁄(2)---22-2--7--9⁄(5)--7-7--7-7--7-7--7⁄(2)-|
D|0-0--0--0------0-0--0-0--0-0--0-------00-0--0--0------0-0--0-0--0-0--0-----|
A|---------------------------------------------------------------------------|
E|---------------------------------------------------------------------------|
d u d d d u d u d u d d u d d d u d u d u d
(Guitar 1)

E|-----------------------------------------------------------------------------|
B|-----------------------------------------------------------------------------|
G|11-11----------------------------------11-11---------------------------------|
D|12-12-12-14⁄(11)-12-12--12-12--12⁄(9)--12-12-12-14⁄(11)-12-12--12-12--12⁄(9)-|
A|12-12-10-12⁄-(9)-10-10--10-10--10⁄(7)--12-12-10-12⁄-(9)-10-10--10-10--10⁄(7)-|
E|10-10----------------------------------10-10---------------------------------|
(Guitar 2)

E|2-2--7--9⁄(5)--7-7--7-7--7-7--7⁄(2)---22-2--7--9⁄(5)--7-7--7-7--7-7--7⁄(2)-|
B|3-3--8-10⁄(6)--8-8--8-8--8-8--8⁄(3)---33-3--8-10⁄(6)--8-8--8-8--8-8--8⁄(3)-|
G|2-2--7--9⁄(5)--7-7--7-7--7-7--7⁄(2)---22-2--7--9⁄(5)--7-7--7-7--7-7--7⁄(2)-|
D|0-0--0--0------0-0--0-0--0-0--0-------00-0--0--0------0-0--0-0--0-0--0-----|
A|---------------------------------------------------------------------------|
E|---------------------------------------------------------------------------|
d u d d d u d u d u d d u d d d u d u d u d
(Guitar 1)

E|-----------------------------------------------------------------------------|
B|-----------------------------------------------------------------------------|
G|11-11----------------------------------11-11---------------------------------|
D|12-12-12-14⁄(11)-12-12--12-12--12⁄(9)--12-12-12-14⁄(11)-12-12--12-12--12⁄(9)-|
A|12-12-10-12⁄-(9)-10-10--10-10--10⁄(7)--12-12-10-12⁄-(9)-10-10--10-10--10⁄(7)-|
E|10-10----------------------------------10-10---------------------------------|
(Guitar 2)

E|---------------------------------------------------------|
B|---------------------------------------------------------|
G|---------------------------------------------------------|
D|5/7--8⁄7-(7⁄5)-----5--4--5---5/7--8⁄7-((7⁄5)-----5--4--5-|
A|3/5--6⁄5-(5⁄3)-----3--2--3---3/5--6⁄5-((5⁄3)-----3--2--3-|
E|-------------(2)/5-------------------------(2)/5---------|
{..slight pm..}
Living life comes easy if you know which way you're going

E|---------------------------------------------------------|
B|---------------------------------------------------------|
G|---------------------------------------------------------|
D|5/7--8⁄7-(7⁄5)-----5--4--5---5/7--8⁄7-((7⁄5)-----5--4--5-|
A|3/5--6⁄5-(5⁄3)-----3--2--3---3/5--6⁄5-((5⁄3)-----3--2--3-|
E|-------------(2)/5-------------------------(2)/5---------|
{..slight pm..}
You've got to see yourself in others eyes; suprise!

E|---------------------------------------------------------|
B|---------------------------------------------------------|
G|---------------------------------------------------------|
D|5/7--8⁄7-(7⁄5)-----5--4--5---5/7--8⁄7-((7⁄5)-----5--4--5-|
A|3/5--6⁄5-(5⁄3)-----3--2--3---3/5--6⁄5-((5⁄3)-----3--2--3-|
E|-------------(2)/5-------------------------(2)/5---------|
{..slight pm..}
Living like I want to don't come easy 'cause I'm trying

E|---------------------------------------------------------|
B|---------------------------------------------------------|
G|---------------------------------------------------------|
D|5/7--8⁄7-(7⁄5)-----5--4--5---5/7--8⁄7-((7⁄5)-----5--4--5-|
A|3/5--6⁄5-(5⁄3)-----3--2--3---3/5--6⁄5-((5⁄3)-----3--2--3-|
E|-------------(2)/5-------------------------(2)/5---------|
{..slight pm..}
Sorting out what's true and what are lies; it's wise.

E|2-2--7--9⁄(5)--7-7--7-7--7-7--7⁄(2)---22-2--7--9⁄(5)--7-7--7-7--7-7--7⁄(2)-|
B|3-3--8-10⁄(6)--8-8--8-8--8-8--8⁄(3)---33-3--8-10⁄(6)--8-8--8-8--8-8--8⁄(3)-|
G|2-2--7--9⁄(5)--7-7--7-7--7-7--7⁄(2)---22-2--7--9⁄(5)--7-7--7-7--7-7--7⁄(2)-|
D|0-0--0--0------0-0--0-0--0-0--0-------00-0--0--0------0-0--0-0--0-0--0-----|
A|---------------------------------------------------------------------------|
E|---------------------------------------------------------------------------|
d u d d d u d u d u d d u d d d u d u d u d
(Guitar 1)

E|-----------------------------------------------------------------------------|
B|-----------------------------------------------------------------------------|
G|11-11----------------------------------11-11---------------------------------|
D|12-12-12-14⁄(11)-12-12--12-12--12⁄(9)--12-12-12-14⁄(11)-12-12--12-12--12⁄(9)-|
A|12-12-10-12⁄-(9)-10-10--10-10--10⁄(7)--12-12-10-12⁄-(9)-10-10--10-10--10⁄(7)-|
E|10-10----------------------------------10-10---------------------------------|
(Guitar 2)

E|2-2--7--9⁄(5)--7-7--7-7--7-7--7⁄(2)---22-2--7--9⁄(5)--7-7--7-7--7-7--7⁄(2)-|
B|3-3--8-10⁄(6)--8-8--8-8--8-8--8⁄(3)---33-3--8-10⁄(6)--8-8--8-8--8-8--8⁄(3)-|
G|2-2--7--9⁄(5)--7-7--7-7--7-7--7⁄(2)---22-2--7--9⁄(5)--7-7--7-7--7-7--7⁄(2)-|
D|0-0--0--0------0-0--0-0--0-0--0-------00-0--0--0------0-0--0-0--0-0--0-----|
A|---------------------------------------------------------------------------|
E|---------------------------------------------------------------------------|
d u d d d u d u d u d d u d d d u d u d u d
(Guitar 1)

E|-----------------------------------------------------------------------------|
B|-----------------------------------------------------------------------------|
G|11-11----------------------------------11-11---------------------------------|
D|12-12-12-14⁄(11)-12-12--12-12--12⁄(9)--12-12-12-14⁄(11)-12-12--12-12--12⁄(9)-|
A|12-12-10-12⁄-(9)-10-10--10-10--10⁄(7)--12-12-10-12⁄-(9)-10-10--10-10--10⁄(7)-|
E|10-10----------------------------------10-10---------------------------------|
(Guitar 2)

LEAD (2:43)
E|----------------------------------------------------------------|
B|----------------------------------------------------9-----------|
G|-----9^(11)-7-9~~~~~~~-9-10p9p7-10p9p7--10p9p7-10p9p7--7~~~~~~~-|
D|----------------------------------------------------------------|
A|5~~-------------------------------------------------------------|
E|----------------------------------------------------------------|

E|--------------------------|
B|--------------------------|
G|--------------------------|
D|7--5-------7-x-12--5-4--7-|
A|5--3----3--5-x-10--3-2--5-|
E|-----3/5------------------|
(Background rhythm adapted for guitar.
Listen to the song..you'll see how it fits))

E|13^(15)-13-10-13p10-------10--------------------------------------------|
B|-------------------13^(15)--13p10--------10~~~~-13-13-10^(12)-13-10~~~~-|
G|---------------------------------12^(144)-------------------------------|
D|------------------------------------------------------------------------|
A|------------------------------------------------------------------------|
E|------------------------------------------------------------------------|

E|--------------------------------13~~~-118^(20)-18-15-------14-15-17--------|
B|13-13-10^(12)-13-10~~~~-10-13-15--------------------18^(20)--------15⁄(12)-|
G|---------------------------------------------------------------------------|
D|---------------------------------------------------------------------------|
A|---------------------------------------------------------------------------|
E|---------------------------------------------------------------------------|

E|---------10--------13-10----------------------------------------|
B|-------10--13p10-13------13-13p10--------13-13p10--------10~~~~-|
G|12^(14)--------------------------12^(144)--------12-10-12-------|
D|----------------------------------------------------------------|
A|----------------------------------------------------------------|
E|----------------------------------------------------------------|

E|--------------------------|
B|--------------------------|
G|--------------------------|
D|7--5-------7-x-12--5-4--7-|
A|5--3----3--5-x-10--3-2--5-|
E|-----3/5------------------|
(Background rhythm >> only played twice, then keyboards to end of lead)

E|-------------------------------------------------|
B|---------------------------------------------12~-|
G|---------------------------------------------12~-|
D|---------------------------------------------12~-|
A|7-5h7-7-7-7-7-7-5h7-7-7-7-7-7-5h7-7-7-77-7-7-----|
E|0-0-0-0-0-0-0-0-0-0-0-0-0-0-0-0-0-0-0-00-0-0-----|

E|-------------------------------------------------|
B|---------------------------------------------12~-|
G|---------------------------------------------12~-|
D|---------------------------------------------12~-|
A|-7-5h7-7-7-7-7-7-5h7-7-7-7-7-7-5h7-7-7-7-7-7-----|
E|-0-0-0-0-0-0-0-0-0-0-0-0-0-0-0-0-0-0-0-0-0-0-----|

E|-------------------------------------------------|
B|---------------------------------------------12~-|
G|---------------------------------------------12~-|
D|---------------------------------------------12~-|
A|7-5h7-7-7-7-7-7-5h7-7-7-7-7-7-5h7-7-7-77-7-7-----|
E|0-0-0-0-0-0-0-0-0-0-0-0-0-0-0-0-0-0-0-00-0-0-----|

E|-------------------------------------------------|
B|---------------------------------------------12~-|
G|---------------------------------------------12~-|
D|---------------------------------------------12~-|
A|-7-5h7-7-7-7-7-7-5h7-7-7-7-7-7-5h7-7-7-7-7-7-----|
E|-0-0-0-0-0-0-0-0-0-0-0-0-0-0-0-0-0-0-0-0-0-0-----|
Brought up in the back streets, living wit the salt of the land

E|-------------------------------------------------|
B|---------------------------------------------12~-|
G|---------------------------------------------12~-|
D|---------------------------------------------12~-|
A|7-5h7-7-7-7-7-7-5h7-7-7-7-7-7-5h7-7-7-77-7-7-----|
E|0-0-0-0-0-0-0-0-0-0-0-0-0-0-0-0-0-0-0-00-0-0-----|

E|-------------------------------------------------|
B|---------------------------------------------12~-|
G|---------------------------------------------12~-|
D|---------------------------------------------12~-|
A|-7-5h7-7-7-7-7-7-5h7-7-7-7-7-7-5h7-7-7-7-7-7-----|
E|-0-0-0-0-0-0-0-0-0-0-0-0-0-0-0-0-0-0-0-0-0-0-----|
Seems that now my music's payin' off my tax demands

E|-------------------------------------------------|
B|---------------------------------------------12~-|
G|---------------------------------------------12~-|
D|---------------------------------------------12~-|
A|7-5h7-7-7-7-7-7-5h7-7-7-7-7-7-5h7-7-7-77-7-7-----|
E|0-0-0-0-0-0-0-0-0-0-0-0-0-0-0-0-0-0-0-00-0-0-----|

E|-------------------------------------------------|
B|---------------------------------------------12~-|
G|---------------------------------------------12~-|
D|---------------------------------------------12~-|
A|-7-5h7-7-7-7-7-7-5h7-7-7-7-7-7-5h7-7-7-7-7-7-----|
E|-0-0-0-0-0-0-0-0-0-0-0-0-0-0-0-0-0-0-0-0-0-0-----|
So listin' to the music flowin' till ya get it just right

E|-------------------------------------------------|
B|---------------------------------------------12~-|
G|---------------------------------------------12~-|
D|---------------------------------------------12~-|
A|7-5h7-7-7-7-7-7-5h7-7-7-7-7-7-5h7-7-7-77-7-7-----|
E|0-0-0-0-0-0-0-0-0-0-0-0-0-0-0-0-0-0-0-00-0-0-----|

E|-------------------------------------------------|
B|---------------------------------------------12~-|
G|---------------------------------------------12~-|
D|---------------------------------------------12~-|
A|-7-5h7-7-7-7-7-7-5h7-7-7-7-7-7-5h7-7-7-7-7-7-----|
E|-0-0-0-0-0-0-0-0-0-0-0-0-0-0-0-0-0-0-0-0-0-0-----|
'Cause I'm a back street rocker and I will be 'till the day I die

CHOURSE
E A D⁄C#
E|------------------------------------------------|
B|------------------------------------------------|
G|------------------------------------------------|
D|-------------------------------------9------7⁄6-|
A|--------7--------------------7-------7---7--5⁄4-|
E|-7/9~~~---9-8-7~~--7--8--9~~---9-8-7-----5------|

Тональность:

Это должно быть в ТОП-листе! - Топ-лист композиций



Назад
Рекомендуем посмотреть другие песни исполнителя «Black Sabbath»:

  • Комменты Fb ()
  • Комменты ВК



Добавить в Избранное Браузера
Сохранить здесь Очистить


x

0


+
-

+
-

-

Авторизация





Зарегистрироваться

M

Дата и время

  • 13:27:25
     

Социальные ссылки


Наши приложения

  • Muzbank App Play Market
  • Muzbank Amazon App