MUZBANK


МУЗЫКАЛЬНО-ИНФОРМАЦИОННЫЙ БАНК





BBlack Sabbath • Children Of The Sea (аккорды и текст - chords & lyrics)


425

Print

Видео «Children Of The Sea (Black Sabbath)»

Видео клипы к песне подбираются автоматически сайтом youtube. Возможны некоторые несоответствия клипов песне.

↑ Спрятать рекламу ↑






|----9-10-10h12----14-12-10-12--10-9-10--9----9----10⁄9----
|-12--------------------12-----------------12---12---------
|-------------------------------------------------------⁄5-
|----------------------------------------------------------
...on the edge of time" "weve lost the rising sun"
|------------10-9----9-------------------------------------
|-------10h12-----12---10----------------------------------
|-5-5--------------------10⁄8-7-5---------5-------5-5------
|----------------------------------------------------------
"as the misty morning"
|---------------------------------10-9----9----------------
|-2-3-5----3p2-------------------------12---10-------------
|-------3------5--------5-5--------------------10⁄8-7-5----
|----------------------------------------------------------

|----------------------------------------------------------
|-----------------------------------------4-7⁄-------------
|--------------2h3-2h3-------------2-5--5------------------
|-5---5-5---------------5---5-5--3-------------------------

|---------------------------------4-7⁄---------------------
|-------------------------------5--------4-7⁄--------------
|--------------2h3-2h3-----------------5-------------------
|-5---5-5---------------5---5-5----------------------------
"we sail across the air.,."
|----------------------------------------------------------
|-----------------------------------------4-7⁄-------------
|--------------2h3-2h3-------------2-5--5------------------
|-5---5-5---------------5---5-5--3-------------------------
"we thought that it could..."
|----------------------------------------------------------
|-------------------------------7-5------------------------
|--------------2h3-2h3--------------7-5-7-5----------------
|-5---5-5---------------5---5-5-------------8-7------------
"we glide above the ground..."
|----------------------------------------------------------
|-----------------------------------------4-7⁄-------------
|--------------2h3-2h3-------------2-5--5------------------
|-5---5-5---------------5---5-5--3-------------------------
"now it seems our world has come undone"
|----------------------------------------------------------
|-------------------------------------------5-7------------
|--------------2h3-2h3------------------5-7----------------
|-5---5-5---------------5---5-5--5-7-8---------------------
"oh they say, that its over"
|----------------------------------------------------------
|----------------------------------------------------------
|-3----3---3h(5)----2-3-5⁄--------3-2-------2-3-5-3--------
|---------------3-5-------5--5-5------5-3-5----------------
"and it just had to be" "ooh they say..."
|-------------------5-4-------------------------------------------
|-----------------------7-5-7-5---5-------------------------------
|-3-----------------------------7----3----3-3------------3-5-7----
|-----3--0-3-5-3-5------------------------------3---3--5----------
"were lost children..."
|----------------------------------------------------------
|----------------------------------------------------------
|-3----3-3----3-----------3---3-3----------3-5-7-5---5-5---
|----------------3----3-3----------3---3-3-----------------

w/ solo:
|------7--------------5------------4-----------------------
|----7---7----------5---5--------4---4------------------7-7
|-5--------5---3-3--------3-2-2--------2-------------------
|----------------------------------------5-5--5-5--5-5-----

|------------9--9-11-12-11-9-11--------------------------------
|----------9---------------------------------------------------
|-/7-7-5-7------------------------------5-------7-9-10-9-7-9---
|-------------------------------7-7-5-7---7---7----------------

|-----------9--9-11-12-11-9-11-----------------------------
|---------9------------------------------------------------
|-7-7-5-7------------------------------5-------10-9--------
|------------------------------7-7-5-7---7---7-------------

|-------------------------------------------------9-----------
|-----------------------------------------4-5-----------------
|-7-----7----7---7--------5----5-5---5-5------7-------7---7---
|-----7----7---7---8-8--8-----------------------7---7---7-----

|----------------------------------------------------------
|----------------------------------------------------------
|------7-5-------------------------------------------------
|-8-8------------------------------------------------------


w/acoustic part
|---------------------------------------10-9----9----------------
|--------------------------------------------12---12-------------
|----------------------------------------------------10⁄8--------
|-/10--10-10---10-10--13p12-10---10-10--------------------12-10--

Тональность:

Это должно быть в ТОП-листе! - Топ-лист композиций



Назад
Рекомендуем посмотреть другие песни исполнителя «Black Sabbath»:

  • Комменты Fb ()
  • Комменты ВК



Добавить в Избранное Браузера
Сохранить здесь Очистить


x

0


+
-

+
-

-

Авторизация





Зарегистрироваться

M

Дата и время

  • 10:05:33
     

Социальные ссылки


Наши приложения

  • Muzbank App Play Market
  • Muzbank Amazon App