MUZBANK


МУЗЫКАЛЬНО-ИНФОРМАЦИОННЫЙ БАНК





BBlack Sabbath • Die Young (аккорды и текст - chords & lyrics)


451

Print

Видео «Die Young (Black Sabbath)»

Видео клипы к песне подбираются автоматически сайтом youtube. Возможны некоторые несоответствия клипов песне.

↑ Спрятать рекламу ↑






E|---------------------------------------------------------------------------|
B|-15^----12h15p12-----------------------------------------------------------|
G|-----------------14-12-14^---12h14p12-11--12-------------------------------|
D|----------------------------------------------14--12h14p12-----------------|
A|--------------------------------------------------------------14⁄12--------|
E|--------------------------------------------------------------------14--12-|

E|-12-12-----14-14-----15-15-----17-17-----19-19--|
B|-15^15^----17^17^----18^18^----20^20^----22^22^-|
G|------------------------------------------------|
D|------------------------------------------------|
A|-------------(w/ long delay: listen to song)----|
E|------------------------------------------------|

E|------------------------------------------------------------|
B|------------------------------------------------------------|
G|--9-----12-14-12⁄11--9-----5--7--12⁄11--9-------------------|
D|--9-----12-14-12⁄11--9-----5--7--12⁄11--9-------------------|
A|--7-----10-12-10⁄9---7-----3--5--10⁄9---7-----7---10-9-7----|
E|---------------------------------------------------------10-|

E|-----12--------15-14-12---------------------------|
B|--12----15^-------------15-12------------12-------|
G|------------------------------14^^12--14----12----|
D|-----------------------------------------------14-|
A|--------------------------------------------------|
E|--------------------------------------------------|

E|----15-121512------15-121512---12151215121512151215121512151215-|
B|-15^---------15-15^---------15----------------------------------|
G|----------------------------------------------------------------|
D|----------------------------------------------------------------|
A|----------------------------------------------------------------|
E|----------------------------------------------------------------|

 gather the wind...
E|---------------------------------------------------------------------|
B|---------------------------------------------------10^^8-------------|
G|--9---------------5----7----9-----12-14-12⁄11--9----------9--7-----9-|
D|--9---------------5----7----9-----12-14-12⁄11--9----5-4-2------9-7-9-|
A|--7---------------3----5----7-----10-12-10⁄9---7----------5--2-0---7-|
E|-----------------------------------------------------------------3-0-|

      (1)                                 (2)
E|----------------------------|----15------------15-----17^-17^-17^-|
B|----------------------------|-15^--^15^---15/17-------------------|
G|----------------------------|-------------------------------------|
D|----------7-----------------|-------------------------------------|
A|-10-9-7-----10-9-10-9-------|-------------------------------------|
E|----------------------10^---|-------------------------------------|

so live for today...
E|-----------------------------------------------------------------|
B|-----------------------------------------------------------------|
G|-7--7-----7--7--5-----7--7-----------------------12-11--12-7---9-|
D|-5--7-----5--7--5-----5--7-----------------------12-11--12-7---9-|
A|----5--------5--3--------5------10-9-7-9-7-------10--9--10-5---7-|
E|-------------------------------------------10-7------------------|

 (interlude)
E|---------------------------------------------7---------|
B|-----8-----7-------7-----------8-----7---------8-------|
G|-------9-----9-------9-----------9-----9---------9-----|
D|---------9-----9-------9-----------9-----9---------9---|
A|-7-7-------------7---------7-7-------------7---------7-|
E|-------------------------------------------------------|

Тональность:

Это должно быть в ТОП-листе! - Топ-лист композиций



Назад
Рекомендуем посмотреть другие песни исполнителя «Black Sabbath»:

  • Комменты Fb ()
  • Комменты ВК



Добавить в Избранное Браузера
Сохранить здесь Очистить


x

0


+
-

+
-

-

Авторизация





Зарегистрироваться

M

Дата и время

  • 19:45:14
     

Социальные ссылки


Наши приложения

  • Muzbank App Play Market
  • Muzbank Amazon App