MUZBANK


МУЗЫКАЛЬНО-ИНФОРМАЦИОННЫЙ БАНК





BBlack Sabbath • Embryo (аккорды и текст - chords & lyrics)


373

Print

Видео «Embryo (Black Sabbath)»

Видео клипы к песне подбираются автоматически сайтом youtube. Возможны некоторые несоответствия клипов песне.

↑ Спрятать рекламу ↑






------------------------
------------------------
------------------------
-0-2-3-2-0-0-3-2-0------
------------------------
------------------------

*Tune down 1 1/2 steps*

*Beginning of Children of the Grave*

---------------------------------------------------------------------
---------------------------------------------------------------------
---------------------------------------------------------------------
----------------------------------------------------10--9------------
----------------------------------------------------10--9------------
-0---0----0-0-0----0---0----0-0-0----0---0----0-0-0--8--7------------

-------------------------------------------------
-------------------------------------------------
-------------------------------------------------
-------------------------------------------------
---12/14--17--17-10-----10-/12-------12⁄---------
---10/12--15--15--8------8-/10-------10⁄---------

----------------------------------------------------------------------
----------------------------------------------------------------------
----------------------------------------------------------------------
----------------------------------------------------------------------
-------------------------------------------------------5--------------
--0---0---0-0-0---0---0---0-0-0----0--0---0-0-0----0---3--------------

---15----------
---18^---------
---------------
---------------
---------------
---------------

----------------------------------------------------------------------
----------------------------------------------------------------------
----------------------------------------------------------------------
-----------------------2------------------------2---------------------
--------0--2--0--1--2-----------------0--1--2------1--0---------------
--0--3--------------------------0--3----------------------------------

----------------------------------------------------------------------
----------------------------------------------------------------------
----------------------------------------------------------------------
---9----12--9---------------------9---12--9---------------------------
---7----10--7--9--8---8--9-11-12--7---10--7--12-11--11-12-------------
--------------x7--6---6--7--9-10------------x10--9---9-10-------------

Solo:
|--12--12-----12--12-----12-(12)(12)---------------------------
|--15^-15^----15^-15^----15^(15)(15)15p12----------------------
|----------------------------------------14^-12-12-14-12----12-
|--------------------------------------------------------14----
|--------------------------------------------------------------
|--------------------------------------------------------------

|------12---12-------------------|-----------------------------12-
|----12--15^---15p12-------------|---------------------------12---
|-14^---------------14^-(12--14)-|-12--12--------------12-14^-----
|--------------------------------|---14--14-12-14-12h14-----------
|--------------------------------|--------------------------------
|--------------------------------|--------------------------------

|------12----------------------------|-------------------------------------
|-15^------15p12---------------------|-------------------------------------
|---------------14^-14-12-14--12--12-|-------------------------------------
|-------------------------------14---|-14-12-14--12---12----------------12-
|------------------------------------|-------------14----14-12-10-12/14----
|------------------------------------|-------------------------------------

|---------------12----------------|-----------------------15----
|-------------12--15p12-----------|-------15-12-15-12-/17-------
|-------12-14^---------14^-12--12-|-14-12-----------------------
|-12h14----------------------14---|-----------------------------
|---------------------------------|-----------------------------
|---------------------------------|-----------------------------

|-17/18p15--17/18p15--17/18p15--17/18p15-|-17p15----15-----------------------
|----------------------------------------|------17----1715-------------------
|----------------------------------------|----------------16⁄1412-1412----12-
|----------------------------------------|-----------------------------14----
|----------------------------------------|-----------------------------------
|----------------------------------------|-----------------------------------

|------12----12----------------|---------------12-----12----------------
|--------15^-----15p12---------|-----------------15^-----15p12----------
|-14^-----------------14^^--14-|-12----12-14^------------------14^^p12--
|-------------------------14---|-----14---------------------------------
|------------------------------|----------------------------------------
|------------------------------|----------------------------------------

|-------------------------------|--------------12--------------------
|-------------------------------|-----------------15p12--------------
|-14-12----12----------------12-|-14-(12)-14^-----------14p12----12--
|-------14----14p12-14-12h14----|-----------------------------14-----
|-------------------------------|------------------------------------
|-------------------------------|------------------------------------

|-------------------------------------|------------------------------
|-------------------------------------|------------------------------
|-------------------------------------|--------------12--------------
|-14-12-14-12----12-------------------|-----12-12h14----14p12--------
|-------------14----14⁄12-10-12-10-12/|/14---------------------7--4--
|-------------------------------------|------------------------------

Ending
|---12--12----14--14---15--15---16--16---17--17⁄-----------
|---15^-15^---17^-17^--18^-18^--19^-19^--20^---------------
|----------------------------------------------------------
|----------------------------------------------------------
|----------------------------------------------------------
|----------------------------------------------------------

Тональность:

Это должно быть в ТОП-листе! - Топ-лист композиций



Назад
Рекомендуем посмотреть другие песни исполнителя «Black Sabbath»:

  • Комменты Fb ()
  • Комменты ВК



Добавить в Избранное Браузера
Сохранить здесь Очистить


x

0


+
-

+
-

-

Авторизация





Зарегистрироваться

M

Дата и время

  • 15:19:15
     

Социальные ссылки


Наши приложения

  • Muzbank App Play Market
  • Muzbank Amazon App