MUZBANK


МУЗЫКАЛЬНО-ИНФОРМАЦИОННЫЙ БАНК





BBlack Sabbath • Feels Good To Me (аккорды и текст - chords & lyrics)


374

Print

Видео «Feels Good To Me (Black Sabbath)»

Видео клипы к песне подбираются автоматически сайтом youtube. Возможны некоторые несоответствия клипов песне.

↑ Спрятать рекламу ↑






E|13^(15`13)-|
B|-----------|
G|-----------|
D|-----------|
A|-----------|
E|-----------|
slow release

E|----0----0---3-------------------0----0---3------------------|
B|---3----*-3-*-----3-1--1-0-1----3----*-3-*-----3-1---1-0-1-1-|
G|--2----*---2----0-----*---0----2----*---2-----0-----*-----0--|
D|0-----0--------2-----*--------0----0---------2-----*---------|
A|--------------3-----0-----------------------3-----0----------|
E|-------------------------------------------------------------|
The chapter is opened, the pages are turned. The writings say many things,
but who was concerned?

E|----0----0---3-------------------0----0---3------------------|
B|---3----*-3-*-----3-1--1-0-1----3----*-3-*-----3-1---1-0-1-1-|
G|--2----*---2----0-----*---0----2----*---2-----0-----*-----0--|
D|0-----0--------2-----*--------0----0---------2-----*---------|
A|--------------3-----0-----------------------3-----0----------|
E|-------------------------------------------------------------|
Where can we run to now? When will we learn? When it's lost, it's gone

E|------------0-|
B|------------3-|
G|-------0----2-|
D|-------2------|
A|-------3------|
E|--------------|
{ss} {ss}
forever.

E|----0----0---3-------------------0----0---3------------------|
B|---3----*-3-*-----3-1--1-0-1----3----*-3-*-----3-1---1-0-1-1-|
G|--2----*---2----0-----*---0----2----*---2-----0-----*-----0--|
D|0-----0--------2-----*--------0----0---------2-----*---------|
A|--------------3-----0-----------------------3-----0----------|
E|-------------------------------------------------------------|
For years they told me what I should do. Down to the places I'd go and who
I should talk to.

E|----0----0---3-------------------0----0---3------------------|
B|---3----*-3-*-----3-1--1-0-1----3----*-3-*-----3-1---1-0-1-1-|
G|--2----*---2----0-----*---0----2----*---2-----0-----*-----0--|
D|0-----0--------2-----*--------0----0---------2-----*---------|
A|--------------3-----0-----------------------3-----0----------|
E|-------------------------------------------------------------|
But that don't matter no more since I found out the truth and it feels good

E|------------0-|
B|------------3-|
G|-------0----2-|
D|-------2------|
A|-------3------|
E|--------------|
{ss} {ss}
me.

LEAD

E|--------------------------------------------------------|
B|--------------------------------------------------------|
G|7-12-14/17-16-15⁄9-----------9⁄7/9-14-7/9-7/9-----------|
D|*--*--*--*--*--*-------------*-*-*--*-*-*-*-*-----------|
A|5-10-12/15-14-12⁄7(let fade)-7⁄5/7-12-5/7-5/7(let fade)-|
E|--------------------------------------------------------|
{s/}
E|-------------------------------------------------------------|
B|-5-4--5-7/9---------------------8^(10)-8-5-55------5---------|
G|5----------7(slight fade)⁄(3)-------------7---5h7p5-7-5h7p5--|
D|-----------------------------------------------------------7-|
A|-------------------------------------------------------------|
E|-------------------------------------------------------------|
{s⁄}

Тональность:

Это должно быть в ТОП-листе! - Топ-лист композиций



Назад
Рекомендуем посмотреть другие песни исполнителя «Black Sabbath»:

  • Комменты Fb ()
  • Комменты ВК



Добавить в Избранное Браузера
Сохранить здесь Очистить


x

0


+
-

+
-

-

Авторизация





Зарегистрироваться

M

Дата и время

  • 02:27:25
     

Социальные ссылки


Наши приложения

  • Muzbank App Play Market
  • Muzbank Amazon App