MUZBANK


МУЗЫКАЛЬНО-ИНФОРМАЦИОННЫЙ БАНК





BBlack Sabbath • Fluff (аккорды и текст - chords & lyrics)


494

Print

Видео «Fluff (Black Sabbath)»

Видео клипы к песне подбираются автоматически сайтом youtube. Возможны некоторые несоответствия клипов песне.

↑ Спрятать рекламу ↑






Background guitar (slowly):
-----------2------------------2-------|----------2-----------------2--------|
-------3------3------------3-----3----|-------0-----0-----------0-----0-----|
---2--------------2-----2-----------2-|----0-----------0-----0-----------0--|
0--------------------0----------------|-0-----------------0-----------------|
--------------------------------------|-------------------------------------|
--------------------------------------|-------------------------------------|


gtr. 2 :
--------------------------------------|-------------------------------------|
--------------------------------------|-------------------------------------|
--------------------------------------|-------------------------------------|
4-5-7----------------------------7/9--|-------------------------------------|
--------------------------------------|-7-----------------------------------|
--------------------------------------|-------------------------------------|


Gtr. 1
|----------2-----------------2--------|----------2-----------------2-----3--|
|-------3-----3-----------3-----3-----|-------0-----0-----------0-----------|
|----2-----------2-----2-----------2--|----0-----------0-----0--------------|
|-0-----------------0-----------------|-0-----------------0-----------------|
|-------------------------------------|-------------------------------------|
|-------------------------------------|-------------------------------------|
| | |
|Gtr. 2 | |
|-------------------------------------|-------------------------------------|
|-------------------------------------|-------------------------------------|
|-------------------------------------|-------------------------------------|
|-4-5-7--------------------------7/9--|---------------------------------7-6-|
|-------------------------------------|-7-----------------------------------|
|-------------------------------------|-------------------------------------|

Gtr. 1
|-------0-----------0-----|-------0-----------0-------|
|-----0---0-------0---0---|-----0---0-------0---0-----|
|---7-------7---7-------7-|---7-------7---7-------7---|
|-5-----------5-----------|-5-----------5-----------5-|
|-------------------------|---------------------------|
|-------------------------|---------------------------|
| | |
|Gtr. 2 | |
|-------------------------|---------------------------|
|-------------------------|---------------------------|
|-------------------------|---------------------------|
|-5-----------5-----------|-7-----------[7]/9---------|
|-------------------------|---------------------------|
|-------------------------|---------------------------|


Gtr. 1
|--------------------|-------------------|-------0-----------0-----|
|-----------8--------|----------8--------|-----0---0-------0---0---|
|--------9-----9-----|-------9-----9-----|---7-------7---7-------7-|
|-----7-----------7--|----7-----------7--|-5-----------5-----------|
|--0-----------------|-0-----------------|-------------------------|
|--------------------|-------------------|-------------------------|
| | | |
|Gtr. 2 | | |
|--------------------|-------------------|-------------------------|
|--------------------|-------------------|-------------------------|
|--------------------|-------------------|-------------------------|
|--7-----------------|--------------7-6--|-5-----------5-----------|
|--------------------|-------------------|-------------------------|
|--------------------|-------------------|-------------------------|


Gtr. 1
|-------0-----------0-----|-------------------|-------------------|
|-----0---0-------0---0---|----------8--------|----------8--------|
|---7-------7---7-------7-|-------9-----9-----|-------9-----9-----|
|-5-----------5-----------|----7-----------7--|----7-----------7--|
|-------------------------|-0-----------------|-0-----------------|
|-------------------------|-------------------|-------------------|
| | | |
|Gtr. 2 | | |
|-------------------------|-------------------|-------------------|
|-------------------------|-------------------|-------------------|
|-------------------------|-------------------|-------------------|
|-4-----------0-----------|-0h2---------------|-------------------|
|-------------------------|-------------------|-------------------|
|-------------------------|-------------------|-------------------|



Gtr. 2
|---------------------------------|-----------------------------------|
|---------------------------------|-----------------------------------|
|---------------------------------|-----------------------------------|
|-4-5-7----------------------7/9--|-----------------------------------|
|---------------------------------|-7---------------------------------|
|---------------------------------|-----------------------------------|
| | |
|Gtr. 3 | |
|---------------------------------|-----------------------------------|
|-------------------5⁄3-----------|------------------------10----10---|
|-----------------2---------------|----------------[9]/11--11-11-11⁄9-|
|---------------0-----------------|-----------------------------------|
|---------------------------------|-----------------------------------|
|---------------------------------|-----------------------------------|



Gtr. 2
|----------------------------------------------|-----------------------------|
|----------------------------------------------|-----------------------------|
|----------------------------------------------|-----------------------------|
|-4-5-7------------------------------------7/9-|-------------------------7-6-|
|----------------------------------------------|-7---------------------------|
|----------------------------------------------|-----------------------------|
| | |
|Gtr. 3 | |
|----------------------------------------------|-----------------------------|
|----------[10]/12-(10)------[10]/12-10--------|--------------10-12----------|
|-----------------------(12)-------------------|-------[9]/11-------11⁄9-----|
|----------------------------------------------|-----------------------------|
|----------------------------------------------|-----------------------------|
|----------------------------------------------|-----------------------------|

Gtr. 1
|-------0-----------0-----|-------0-----------0-------|
|-----0---0-------0---0---|-----0---0-------0---0-----|
|---7-------7---7-------7-|---7-------7---7-------7---|
|-5-----------5-----------|-5-----------5-----------5-|
|-------------------------|---------------------------|
|-------------------------|---------------------------|
| | |
|Gtr. 2 | |
|-------------------------|---------------------------|
|-------------------------|---------------------------|
|-------------------------|---------------------------|
|-5-----------5-----------|-7-----------[7]/9---------|
|-------------------------|---------------------------|
|-------------------------|---------------------------|


Gtr. 1
|--------------------|-------------------|-------0-----------0-----|
|-----------8--------|----------8--------|-----0---0-------0---0---|
|--------9-----9-----|-------9-----9-----|---7-------7---7-------7-|
|-----7-----------7--|----7-----------7--|-5-----------5-----------|
|--0-----------------|-0-----------------|-------------------------|
|--------------------|-------------------|-------------------------|
| | | |
|Gtr. 2 | | |
|--------------------|-------------------|-------------------------|
|--------------------|-------------------|-------------------------|
|--------------------|-------------------|-------------------------|
|--7-----------------|--------------7-6--|-5-----------5-----------|
|--------------------|-------------------|-------------------------|
|--------------------|-------------------|-------------------------|


Gtr. 1
|-------0-----------0-----|-------------------|-------------------|
|-----0---0-------0---0---|----------8--------|----------8--------|
|---7-------7---7-------7-|-------9-----9-----|-------9-----9-----|
|-5-----------5-----------|----7-----------7--|----7-----------7--|
|-------------------------|-0-----------------|-0-----------------|
|-------------------------|-------------------|-------------------|
| | | |
|Gtr. 2 | | |
|-------------------------|-------------------|-------------------|
|-------------------------|-------------------|-------------------|
|-------------------------|-------------------|-------------------|
|-4-----------0-----------|-0h2---------------|-------------------|
|-------------------------|-------------------|-------------------|
|-------------------------|-------------------|-------------------|


Gtr. 2
|---------------------------------------------------------------|
|---------------------------------------------------------------|
|*----------------------------------12------------------------*-|
|*-5--------5-7-9-[9]/12----[12]/14----[14]⁄12-------9--9/12--*-|
|----------------------------------------------------.----------|
|---------------------------------------------------------------|



|-----------------------------|---------------------|----------------------|
|-----------------------------|---------------------|----------------------|
|-----------------------------|---------------------|----------------------|
|-R---10--9--10--[10]/12------|-/9--9-⁄-7-⁄-5-/9----|-10-----9--10--12-----|
|-----------------------------|--.------------------|----------------------|
|-----------------------------|---------------------|----------------------|



|----------------------------|--------------------|
|----------------------------|--------------------|
|----------------------------|--------7-----------|
|--11--11------9--9-⁄-7------|-[7]/9-----[9]⁄7----|
|--------------.-------------|--------------------|
|----------------------------|--------------------|



Gtr. 2
|---------------------------------|-----------------------------------|
|---------------------------------|-----------------------------------|
|---------------------------------|-----------------------------------|
|-4-5-7----------------------7/9--|-----------------------------------|
|---------------------------------|-7---------------------------------|
|---------------------------------|-----------------------------------|
| | |
|Gtr. 3 | |
|---------------------------------|-----------------------------------|
|-------------------5⁄3-----------|------------------------10----10---|
|-----------------2---------------|----------------[9]/11--11-11-11⁄9-|
|---------------0-----------------|-----------------------------------|
|---------------------------------|-----------------------------------|
|---------------------------------|-----------------------------------|


Gtr. 2
|----------------------------------------------|-----------------------------|
|----------------------------------------------|-----------------------------|
|----------------------------------------------|-----------------------------|
|-4-5-7------------------------------------7/9-|-------------------------7-6-|
|----------------------------------------------|-7---------------------------|
|----------------------------------------------|-----------------------------|
| | |
|Gtr. 3 | |
|----------------------------------------------|-----------------------------|
|----------[10]/12-(10)------[10]/12-10--------|------12p(10)---10-----------|
|-----------------------(12)-------------------|--------------11---[11]⁄9----|
|----------------------------------------------|-----------------------------|
|----------------------------------------------|-----------------------------|
|----------------------------------------------|-----------------------------|



Gtr. 1
|-------0-----------0-----|-------0-----------0-------|
|-----0---0-------0---0---|-----0---0-------0---0-----|
|---7-------7---7-------7-|---7-------7---7-------7---|
|-5-----------5-----------|-5-----------5-----------5-|
|-------------------------|---------------------------|
|-------------------------|---------------------------|
| | |
|Gtr. 2 | |
|-------------------------|---------------------------|
|-------------------------|---------------------------|
|-------------------------|---------------------------|
|-5-----------5-----------|-7-----------[7]⁄9---------|
|-------------------------|---------------------------|
|-------------------------|---------------------------|


Gtr. 1
|--------------------|-------------------|-------0-----------0-----|
|-----------8--------|----------8--------|-----0---0-------0---0---|
|--------9-----9-----|-------9-----9-----|---7-------7---7-------7-|
|-----7-----------7--|----7-----------7--|-5-----------5-----------|
|--0-----------------|-0-----------------|-------------------------|
|--------------------|-------------------|-------------------------|
| | | |
|Gtr. 2 | | |
|--------------------|-------------------|-------------------------|
|--------------------|-------------------|-------------------------|
|--------------------|-------------------|-------------------------|
|--7-----------------|--------------7-6--|-5-----------5-----------|
|--------------------|-------------------|-------------------------|
|--------------------|-------------------|-------------------------|



Gtr. 1
|-------0-----------0-----|-------------------|-------------------|
|-----0---0-------0---0---|----------8--------|----------8--------|
|---7-------7---7-------7-|-------9-----9-----|-------9-----9-----|
|-5-----------5-----------|----7-----------7--|----7-----------7--|
|-------------------------|-0-----------------|-0-----------------|
|-------------------------|-------------------|-------------------|
| | | |
|Gtr. 2 | | |
|-------------------------|-------------------|-------------------|
|-------------------------|-------------------|-------------------|
|-------------------------|-------------------|-------------------|
|-4-----------0-----------|-0h2---------------|-------------------|
|-------------------------|-------------------|-------------------|
|-------------------------|-------------------|-------------------|




Gtr. 2
|---------------------------------|-----------------------------------|
|---------------------------------|-----------------------------------|
|---------------------------------|-----------------------------------|
|-4-5-7----------------------7/9--|-----------------------------------|
|---------------------------------|-7---------------------------------|
|---------------------------------|-----------------------------------|
| | |
|Gtr. 3 | |
|---------------------------------|-----------------------------------|
|-------------------5⁄3-----------|------------------------10----10---|
|-----------------2---------------|----------------[9]/11--11-11-11⁄9-|
|---------------0-----------------|-----------------------------------|
|---------------------------------|-----------------------------------|
|---------------------------------|-----------------------------------|



Gtr. 2
|----------------------------------------------|-----------------------------|
|----------------------------------------------|-----------------------------|
|----------------------------------------------|-----------------------------|
|-4-5-7------------------------------------7/9-|-------------------------7-6-|
|----------------------------------------------|-7---------------------------|
|----------------------------------------------|-----------------------------|
| | |
|Gtr. 3 | |
|----------------------------------------------|-----------------------------|
|----------[10]/12-(10)------[10]/12-10--------|--------------10-12----------|
|-----------------------(12)-------------------|-------[9]/11-------11⁄9-----|
|----------------------------------------------|-----------------------------|
|----------------------------------------------|-----------------------------|
|----------------------------------------------|-----------------------------|


Gtr. 1
|-------0-----------0-----|-------0-----------0-------|
|-----0---0-------0---0---|-----0---0-------0---0-----|
|---7-------7---7-------7-|---7-------7---7-------7---|
|-5-----------5-----------|-5-----------5-----------5-|
|-------------------------|---------------------------|
|-------------------------|---------------------------|
| | |
|Gtr. 2 | |
|-------------------------|---------------------------|
|-------------------------|---------------------------|
|-------------------------|---------------------------|
|-5-----------5-----------|-7-----------[7]/9---------|
|-------------------------|---------------------------|
|-------------------------|---------------------------|


Gtr. 1
|--------------------|-------------------|-------0-----------0-----|
|-----------8--------|----------8--------|-----0---0-------0---0---|
|--------9-----9-----|-------9-----9-----|---7-------7---7-------7-|
|-----7-----------7--|----7-----------7--|-5-----------5-----------|
|--0-----------------|-0-----------------|-------------------------|
|--------------------|-------------------|-------------------------|
| | | |
|Gtr. 2 | | |
|--------------------|-------------------|-------------------------|
|--------------------|-------------------|-------------------------|
|--------------------|-------------------|-------------------------|
|--7-----------------|--------------7-6--|-5-----------5-----------|
|--------------------|-------------------|-------------------------|
|--------------------|-------------------|-------------------------|


Gtr. 1
|-------0-----------0-----|-------------------|-------------------|
|-----0---0-------0---0---|----------8--------|----------8--------|
|---7-------7---7-------7-|-------9-----9-----|-------9-----9-----|
|-5-----------5-----------|----7-----------7--|----7-----------7--|
|-------------------------|-0-----------------|-0-----------------|
|-------------------------|-------------------|-------------------|
| | | |
|Gtr. 2 | | |
|-------------------------|-------------------|-------------------|
|-------------------------|-------------------|-------------------|
|-------------------------|-------------------|-------------------|
|-4-----------0-----------|-0h2---------------|-------------------|
|-------------------------|-------------------|-------------------|
|-------------------------|-------------------|-------------------|


Gtr. 2
|------------|
|------------|
|------------|
|-5-p-4------|
|--------5---|
|------------|
| |
|Gtrs. 1 & 3 |
|------------|
|------------|
|-2----------|
|-0----------|
|-0----------|
|------------|

Тональность:

Это должно быть в ТОП-листе! - Топ-лист композиций



Назад
Рекомендуем посмотреть другие песни исполнителя «Black Sabbath»:

  • Комменты Fb ()
  • Комменты ВК



Добавить в Избранное Браузера
Сохранить здесь Очистить


x

0


+
-

+
-

-

Авторизация





Зарегистрироваться

M

Дата и время

  • 12:44:19
     

Социальные ссылки


Наши приложения

  • Muzbank App Play Market
  • Muzbank Amazon App