MUZBANK



A MOST COMPLETE BANK OF MUSIC INFORMATION

МУЗЫКАЛЬНО-ИНФОРМАЦИОННЫЙ БАНК





BBlack Sabbath • Glory Ride (аккорды и текст - chords & lyrics)


323

Print

Видео «Glory Ride (Black Sabbath)»

Видео клипы к песне подбираются автоматически сайтом youtube. Возможны некоторые несоответствия клипов песне.

↑ Спрятать рекламу ↑






|-----------------------------------------------------------------
|-----------------------------------------------------------------
|---------5--7/9--7-7--10⁄9-7-5---------5--7/9--7--7⁄5------------
|---5-7⁄--5--7/9--7-7--10⁄9-7-5-5-5-7⁄--5--7/9--7--7⁄5---5---5-7⁄-
|---5-7⁄--3--5/7--5-5-0-8⁄7-5-3-5-5-7⁄--3--5/7--5--5⁄3---5-2-5-7⁄-
|-0-3-5⁄0-----------------------3-3-5⁄-----------------0-3-0-3-5⁄-

-------------------------------------------|
-------------------------------------------|
---5--7/9--7-7---10⁄9-7-5----------5/7-----|
---5--7/9--7-7---10⁄9-7-5-5-5-7⁄---5/7--5--|
---3--5/7--5-5--0-8⁄7-5-3-5-5-7⁄-0-3/5--5--|
-0------------------------3-3-5⁄--------3--|

***during verse, groove on open A string***

"and in the morning..."
|---------5-----------------------5-----------1--0h1-------
|-----5h6-------------3-------5h6-----------3--------------
|---7--------7⁄-------2-----7-------------2----------------
|-0-------------0---------0-------------0------------------
|----------------------------------------------------------
|----------------------------------------------------------

|---------5-----------1-------------5----------------------
|-----5h6-------------3---------5h6------3-----------------
|---7---------------2---------7----------2-----------------
|-0-------------0-----------0------------0-----------------
|----------------------------------------------------------
|----------------------------------------------------------

"hear them calling"
|----------------------------------------------------------
|----------------------------------------------------------
|-----------------7--5--------------10p9----10p9-----------
|-0--0-0-0--0-0-0-7--5-0-0-0--0-0-0-10p9-10-10p9-10--------
|----------------------------------------10------10--------
|----------------------------------------------------------

|----------------------------------------------------------
|----------------------------------------------------------
|----------------10p9-----------------10p9----10p9---------
|-0-0-0-0--0-0-0-10p9-10-0-0-0--0-0-0-10p9-10-10p9-10------
|---------------------10-------------------10------10------
|----------------------------------------------------------

|------------------
|------------------
|-7--(7)-----------
|-7--(7)--3---5----
|-5--(5)--3---5----
|---------1---3----

Solo: in E

|-3--3-3--3-3-3-3--2--2-2--2-2-2-2p0-----------------------
|-3--3-3--3-3-3-3--3--3-3--3-3-3-3-------------------------
|-2--2-2--2-2-2-2--2--2-2--2-2-2-2-------------------------
|-0--0-0--0-0-0-0--0--0-0--0-0-0-0-------------------------
|----------------------------------------------------------
|----------------------------------------------------------

|-3--3-3-2-3------3--2-----
|-3--3-3-3-3---3--3--3-----
|-2--2-2-2-2---2--2--2-----
|-0--0-0-0-0---0--0--0-----
|--------------------------
|--------------------------

Тональность:

Это должно быть в ТОП-листе! - Топ-лист композиций



Назад
Рекомендуем посмотреть другие песни исполнителя «Black Sabbath»:

  • Комменты Fb ()
  • Комменты ВК



Добавить в Избранное Браузера
Сохранить здесь Очистить


x

0


+
-

+
-

-

Авторизация





Зарегистрироваться

M

Дата и время

  • 08:03:24
     

Социальные ссылки


Наши приложения

  • Muzbank App Play Market
  • Muzbank Amazon App
  • Muzbank Bitcoin13igjuWJj2R4cHiyZqP7Q3ggVvfXE9j82Q