MUZBANK


МУЗЫКАЛЬНО-ИНФОРМАЦИОННЫЙ БАНК





BBlack Sabbath • Gypsy (аккорды и текст - chords & lyrics)


428

Print

Видео «Gypsy (Black Sabbath)»

Видео клипы к песне подбираются автоматически сайтом youtube. Возможны некоторые несоответствия клипов песне.

↑ Спрятать рекламу ↑






Bb Eb Ab F Bb Eb Ab F
E|--------------------------------------------------|
B|--------------------------------------------------|
G|------8-----13------10-----------8-----13------10-|
D|8-----8-----13------10-----8-----8-----13------10-|
A|8-----6-----11-------8-----8-----6-----11-------8-|
E|6--------------------------6----------------------|

Bb Eb Ab F Bb Eb Ab F
E|--------------------------------------------------|
B|--------------------------------------------------|
G|------8-----13------10-----------8-----13------10-|
D|8-----8-----13------10-----8-----8-----13------10-|
A|8-----6-----11-------8-----8-----6-----11-------8-|
E|6--------------------------6----------------------|
Watched the universe at the death of another day,
fatalistic ships from a distant shore.

Bb Eb Ab F Bb Eb Ab F
E|--------------------------------------------------|
B|--------------------------------------------------|
G|------8-----13------10-----------8-----13------10-|
D|8-----8-----13------10-----8-----8-----13------10-|
A|8-----6-----11-------8-----8-----6-----11-------8-|
E|6--------------------------6----------------------|
In the back of my mind I could feel she was standing there,
like the feeling you have when you've been there before.

C⁄Bb A Bb F Bb Eb⁄D F C C⁄Bb A Bb F Bb Eb⁄D F F
E|-------------------------------------------------------------|
B|-------------------------------------------------------------|
G|------------------8⁄7--10------------------------8⁄7--10--10-|
D|10⁄8--7--8--3--8--8⁄7--10--10--10⁄8--7--8--3--8--8⁄7--10--10-|
A|10⁄8--7--8--3--8--6⁄5---8--10--10⁄8--7--8--3--8--6⁄5---8---8-|
E|-8⁄6--5--6--1--6------------8---8⁄6--5--6--1--6--------------|

C⁄Bb A Bb F Bb Eb⁄D F C C⁄Bb A Bb F Bb Eb⁄D F F
E|-------------------------------------------------------------|
B|-------------------------------------------------------------|
G|------------------8⁄7--10------------------------8⁄7--10--10-|
D|10⁄8--7--8--3--8--8⁄7--10--10--10⁄8--7--8--3--8--8⁄7--10--10-|
A|10⁄8--7--8--3--8--6⁄5---8--10--10⁄8--7--8--3--8--6⁄5---8---8-|
E|-8⁄6--5--6--1--6------------8---8⁄6--5--6--1--6--------------|

C⁄Bb A Bb F Bb Eb⁄D F C C⁄Bb A Bb F Bb Eb⁄D F F
E|-------------------------------------------------------------|
B|-------------------------------------------------------------|
G|------------------8⁄7--10------------------------8⁄7--10--10-|
D|10⁄8--7--8--3--8--8⁄7--10--10--10⁄8--7--8--3--8--8⁄7--10--10-|
A|10⁄8--7--8--3--8--6⁄5---8--10--10⁄8--7--8--3--8--6⁄5---8---8-|
E|-8⁄6--5--6--1--6------------8---8⁄6--5--6--1--6--------------|
She was a Gypsy Woman, she was as cold as the day, yeah

C⁄Bb A Bb F Bb Eb⁄D F C C⁄Bb A Bb F Bb Eb⁄D F F
E|-------------------------------------------------------------|
B|-------------------------------------------------------------|
G|------------------8⁄7--10------------------------8⁄7--10--10-|
D|10⁄8--7--8--3--8--8⁄7--10--10--10⁄8--7--8--3--8--8⁄7--10--10-|
A|10⁄8--7--8--3--8--6⁄5---8--10--10⁄8--7--8--3--8--6⁄5---8---8-|
E|-8⁄6--5--6--1--6------------8---8⁄6--5--6--1--6--------------|
She said I got it comin', and then she took me away!

D E F G
E|------------------------------------------|
B|------------------------------------------|
G|7----------9-------------10------------12-|
D|7----------9-------------10------------12-|
A|5----------7--------------8------------10-|
E|------------------------------------------|
She took me through the shadows of her sunken dream.

D E F G
E|------------------------------------------|
B|------------------------------------------|
G|7----------9-------------10------------12-|
D|7----------9-------------10------------12-|
A|5----------7--------------8------------10-|
E|------------------------------------------|
I thought "It's over for me." She wasn't all she seemed.

E
E|----------------------------|
B|----------------------------|
G|-------9--------------------|
D|-------9---{Let chord Ride}-|
A|0-2h3--7--------------------|
E|----------------------------|
She took my hand and then she started to speak

D
E|----------------------------|
B|----------------------------|
G|-------7--------------------|
D|-------7---{Let chord Ride}-|
A|0-2h3--5--------------------|
E|----------------------------|
She told me she haad the call

E
E|----------------------------|
B|----------------------------|
G|-------9--------------------|
D|-------9---{Let chord Ride}-|
A|0-2h3--7--------------------|
E|----------------------------|
With eyes of fire that were burning my soul

D
E|----------------------------|
B|----------------------------|
G|-------7--------------------|
D|-------7---{Let chord Ride}-|
A|0-2h3--5--------------------|
E|----------------------------|
She looked into her crystal ball

Db
E|----------------------------|
B|----------------------------|
G|-------6--------------------|
D|-------6---{Let chord Ride}-|
A|0-2h3--4--------------------|
E|----------------------------|
She read my fortune then she read my mind

C
E|----------------------------|
B|----------------------------|
G|-------5--------------------|
D|-------5---{Let chord Ride}-|
A|0-2h3--3--------------------|
E|----------------------------|
She didn't like my thoughts at all

E
E|----------------------------|
B|----------------------------|
G|-------9--------------------|
D|-------9---{Let chord Ride}-|
A|0-2h3--7--------------------|
E|----------------------------|
She showed me shadows, a spectre of life

D
E|----------------------------|
B|----------------------------|
G|-------7--------------------|
D|-------7---{Let chord Ride}-|
A|0-2h3--5--------------------|
E|----------------------------|
My soul just wanted to scream

E
E|----------------------------|
B|----------------------------|
G|-------9--------------------|
D|-------9---{Let chord Ride}-|
A|0-2h3--7--------------------|
E|----------------------------|
She said "Look deeply, into my eyes."

D
E|----------------------------|
B|----------------------------|
G|-------7--------------------|
D|-------7---{Let chord Ride}-|
A|0-2h3--5--------------------|
E|----------------------------|
That's when I fell into a dream

Db
E|----------------------------|
B|----------------------------|
G|-------6--------------------|
D|-------6---{Let chord Ride}-|
A|0-2h3--4--------------------|
E|----------------------------|
When I awoke in bed she lay beside me

C
E|----------------------------|
B|----------------------------|
G|-------5--------------------|
D|-------5---{Let chord Ride}-|
A|0-2h3--3--------------------|
E|----------------------------|
And as she read me with her eyes, she said..

E|-----------------------------------------------------------------|
B|-----------------------------------------------------------------|
G|(5/)-9~~~~~~----------------------------7/9~~~---5-7-7p5---------|
D|--------------------------------------------------------5~~~(⁄2)-|
A|-----------------------------------------------------------------|
E|-----------------------------------------------------------------|
(Guitar 1)

E|-----------------------------------------|
B|-----------------------------------------|
G|2----2----2----2----10----10----10----10-|
D|2----2----2----2----10----10----10----10-|
A|0----0----0----0-----8-----8-----8-----8-|
E|-----------------------------------------|
So ya wanna be a gypsy? Come on now!
(Guitar 2)

E|-----------------------------------------------------------------------------|
B|-----------------------------------------------------------------------------|
G|-------------------------------7/9~~~~~~~~~~~~~~~~~~~~~~~~~~~-7h9p7-7-9~(⁄5)-|
D|-------------------------------------------------------------------9---------|
A|-----------------------------------------------------------------------------|
E|-----------------------------------------------------------------------------|

E|----------------------------------------------------------------------------|
B|----------------------------------------------------------------------------|
G|2-2-2--2----10----10----10----10----9-9-9-9-9-9-9-9-9-9-9-9-9-9-9-9-9-9-9-9-|
D|2-2-2--2----10----10----10----10----9-9-9-9-9-9-9-9-9-9-9-9-9-9-9-9-9-9-9-9-|
A|0-0-0--0-----8-----8-----8-----8----7-7-7-7-7-7-7-7-7-7-7-7-7-7-7-7-7-7-7-7-|
E|------------------------------------0-0-0-0-0-0-0-0-0-0-0-0-0-0-0-0-0-0-0-0-|
So ya wanna be a gypsy? Come on now! Now! Now! Now!
(Guitar 2)

E D E D
E|--------------------------------------------------|
B|--------------------------------------------------|
G|-------9-----------------------7------------------|
D|-------9-{Let chord Ride}------7-{Let chord ride}-|
A|0-2h3--7-----------------0-2h3-5------------------|
E|--------------------------------------------------|

E|---------------------------------|
B|-------------------------------7-|
G|-------9-----------------------7-|
D|-------9-{Let chord Ride}------7-|
A|-0-2h3-7-----------------0-2h3-5-|
E|---------------------------------|

E
E|----------------------------|
B|----------------------------|
G|-------9--------------------|
D|-------9---{Let chord Ride}-|
A|0-2h3--7--------------------|
E|----------------------------|
Gypsy Woman you're the Devil in drag

D
E|----------------------------|
B|----------------------------|
G|-------7--------------------|
D|-------7---{Let chord Ride}-|
A|0-2h3--5--------------------|
E|----------------------------|
You are the Queen of all Hell

E
E|----------------------------|
B|----------------------------|
G|-------9--------------------|
D|-------9---{Let chord Ride}-|
A|0-2h3--7--------------------|
E|----------------------------|
You took my body, now you wasted my soul

D
E|----------------------------|
B|----------------------------|
G|-------7--------------------|
D|-------7---{Let chord Ride}-|
A|0-2h3--5--------------------|
E|----------------------------|
You've got me under your spell

Db
E|----------------------------|
B|----------------------------|
G|-------6--------------------|
D|-------6---{Let chord Ride}-|
A|0-2h3--4--------------------|
E|----------------------------|
And as the sun shines on another day

C
E|----------------------------|
B|----------------------------|
G|-------5--------------------|
D|-------5---{Let chord Ride}-|
A|0-2h3--3--------------------|
E|----------------------------|
You're gonna take my mind as well, it's over!

E|-----------------------------------------------------------------------------|
B|-----------------------------------------8-10-10p8-10-10p8-------------------|
G|------------------------------------5-7/9---------9-------9-7-9-9p7⁄5--------|
D|7~~--5-7-7p5-5-------------5-7-7-7p5---------------------------------7⁄5/7~~-|
A|------------7-7p5⁄3~----5/7--------------------------------------------------|
E|--------------------5--------------------------------------------------------|
(Guitar 1)

A A A A F F F F
E|-----------------------------------------|
B|-----------------------------------------|
G|2----2----2----2----10----10----10----10-|
D|2----2----2----2----10----10----10----10-|
A|0----0----0----0-----8-----8-----8-----8-|
E|-----------------------------------------|
So ya wanna be a gypsy? (Ahh ah) Come on now!
(Guitar 2)

E|-------------------------------------------|
B|-8/10~--8-10-10p8-10p8-8-------------------|
G|-----------------9----9-9p7⁄5-7-5----------|
D|---------------------------------7~~~~~~~~-|
A|-------------------------------------------|
E|-------------------------------------------|
(Guitar 1)

A A A A F F F F
E|-----------------------------------------|
B|-----------------------------------------|
G|2----2----2----2----10----10----10----10-|
D|2----2----2----2----10----10----10----10-|
A|0----0----0----0-----8-----8-----8-----8-|
E|-----------------------------------------|
So ya wanna be a gypsy? (Ahh ah) Come on now!
(Guitar 2)

E|-------14-17-17^(19)-17-14-17p14----------------------|
B|17~~~---------------------------17-14-17p14--14-17~~--|
G|-------------------------------------------16---------|
D|------------------------------------------------------|
A|------------------------------------------------------|
E|------------------------------------------------------|

E|-15^(17~`15)-15^(17~`15)-15^(17~`15)-|
B|-------------------------------------|
G|-------------------------------------|
D|-------------------------------------|
A|-------------------------------------|
E|-------------------------------------|
(Guitar 1)

A A A A F F F F
E|-----------------------------------------|
B|-----------------------------------------|
G|2----2----2----2----10----10----10----10-|
D|2----2----2----2----10----10----10----10-|
A|0----0----0----0-----8-----8-----8-----8-|
E|-----------------------------------------|
So ya wanna be a gypsy? (Ahh ah) Come on now!
(Guitar 2)

E|---------------------------------------------------|
B|--------10-8--8-10p8-8-----------------------------|
G|7--9~~~------9------9-9-7⁄5-5-7/9-7-5--------------|
D|-7-------------------------7---------7~~-5-7-7p5---|
A|------------------------------------------------7--|
E|---------------------------------------------------|

E|---------------------------------------------|
B|--------------------------------------5------|
G|-------------------------5---5---5---5-5h7p5-|
D|------------------------5-7~--7~--7~---------|
A|5⁄3-5p3--------3h5p3h5/7---------------------|
E|-------3~~⁄1~/3------------------------------|
(Guitar 1)

A A A A F F F F
E|-----------------------------------------|
B|-----------------------------------------|
G|2----2----2----2----10----10----10----10-|
D|2----2----2----2----10----10----10----10-|
A|0----0----0----0-----8-----8-----8-----8-|
E|-----------------------------------------|
(Guitar 2)

E|-----------------------------------------------------|
B|-----------------------------8-10-10p8-8h10p8-8h10p8-|
G|5h7p5-5h7p5-5h7p5-------5h7/9---------9------9-------|
D|-----7-----7-----7p5-5h7-----------------------------|
A|--------------------7--------------------------------|
E|-----------------------------------------------------|

E|----------------------------------------------|
B|----------------------------------------------|
G|9p7h9p7-9p7h9p7⁄5-5h7p5-5-7-7^(9s`7)-5-7p5----|
D|-------9---------------7------------------7~~-|
A|----------------------------------------------|
E|----------------------------------------------|
(Guitar 1)

A A A A F F F F
E|-----------------------------------------|
B|-----------------------------------------|
G|2----2----2----2----10----10----10----10-|
D|2----2----2----2----10----10----10----10-|
A|0----0----0----0-----8-----8-----8-----8-|
E|-----------------------------------------|
(Guitar 2)

E|15^(17s`15)-16^(17s`15~)-15^(17s`15)--15-18-|
B|------------------------------------17------|
G|--------------------------------------------|
D|--------------------------------------------|
A|--------------------------------------------|
E|--------------------------------------------|

E|-20^(22-22-22-22-22`20)-17-20-17-20~~-|
B|--------------------------------------|
G|--------------------------------------|
D|--------------------------------------|
A|--------------------------------------|
E|--------------------------------------|
(Guitar 1)

A A A A F F F F
E|-----------------------------------------|
B|-----------------------------------------|
G|2----2----2----2----10----10----10----10-|
D|2----2----2----2----10----10----10----10-|
A|0----0----0----0-----8-----8-----8-----8-|
E|-----------------------------------------|
(Guitar 2)

E|17-20-20p17--20p17--------------------------------|
B|-----------20-----20p17--20p17---------------17~~-|
G|-----------------------19-----19-17-19p17--17-----|
D|-----------------------------------------19-------|
A|--------------------------------------------------|
E|--------------------------------------------------|
(Guitar 1)
E E E E E E E E E E E E E E E E
E|--------------------------------------------------------------|
B|--------------------------------------------------------------|
G|--------------------------------------------------------------|
D|9---9---9---9---9---9---9---9---9---9---9---9---9---9---9---9-|
A|7---7---7---7---7---7---7---7---7---7---7---7---7---7---7---7-|
E|0---0---0---0---0---0---0---0---0---0---0---0---0---0---0---0-|
{.........................chop and pm..........................}
(Guitar 2)

E|-----------------------------------------------14/18~-|
B|-----------------------------5------------------------|
G|---5-7-5h7p5--5h7p5-5h7p5-5h7-7p5h7p5-5-5-------------|
D|5/7---------7------7-----7-----------7---7~-----------|
A|------------------------------------------------------|
E|------------------------------------------------------|
(Guitar 1)
E E E E E E E E E E E E E E E E A
E|-----------------------------------------------------------------|
B|-----------------------------------------------------------------|
G|---------------------------------------------------------------2-|
D|9---9---9---9---9---9---9---9---9---9---9---9---9---9---9---9--2-|
A|7---7---7---7---7---7---7---7---7---7---7---7---7---7---7---7--0-|
E|0---0---0---0---0---0---0---0---0---0---0---0---0---0---0---0----|
{.........................chop and pm..........................}
(Guitar 2)

Тональность:

Это должно быть в ТОП-листе! - Топ-лист композиций



Назад
Рекомендуем посмотреть другие песни исполнителя «Black Sabbath»:

  • Комменты Fb ()
  • Комменты ВК



Добавить в Избранное Браузера
Сохранить здесь Очистить


x

0


+
-

+
-

-

Авторизация





Зарегистрироваться

M

Дата и время

  • 00:13:22
     

Социальные ссылки


Наши приложения

  • Muzbank App Play Market
  • Muzbank Amazon App