MUZBANK


МУЗЫКАЛЬНО-ИНФОРМАЦИОННЫЙ БАНК





BBlack Sabbath • Hard Road (аккорды и текст - chords & lyrics)


472

Print

Видео «Hard Road (Black Sabbath)»

Видео клипы к песне подбираются автоматически сайтом youtube. Возможны некоторые несоответствия клипов песне.

↑ Спрятать рекламу ↑





INTRO
E|------------------------------------------------|
B|------------------------------------------------|
G|------------------------------------------------|
D|------------------------------------------------|
A|2--2-2--2-2--2-2--2-2--2-2--2-2--2-2--22-2--2-2-|
E|------------------------------------------------|
(Guitar 1) (Bass comes in)

E|---------------------------------------------------------------|
B|----2-4p2---2-4~-4-4p2---4~(/7)--2-4p2----2-4~-4-4p2---4~(/7)--|
G|----2-4p2-4-2-4~-4-4p2-4-4~(/7)--2-4p2--4-2-4~-4-4p2-4-4~(/7)--|
D|----------4------------4----------------4------------4---------|
A|2-2----------------------------2-----------------------------2-|
E|---------------------------------------------------------------|
(Guitar 1)

E|--------------------------------------------------------------|
B|----2-4p2---2-4~-4-4p2---4~(/7)--2-4p2----2-4~-4-4p2---4~(/7)-|
G|----2-4p2-4-2-4~-4-4p2-4-4~(/7)--2-4p2--4-2-4~-4-4p2-4-4~(/7)-|
D|----------4------------4----------------4------------4--------|
A|--2----------------------------2------------------------------|
E|--------------------------------------------------------------|
(Guitar 1)

E|---------------------------------------------------------------|
B|----2-4p2---2-4~-4-4p2---4~(/7)--2-4p2----2-4~-4-4p2---4~(/7)--|
G|----2-4p2-4-2-4~-4-4p2-4-4~(/7)--2-4p2--4-2-4~-4-4p2-4-4~(/7)--|
D|----------4------------4----------------4------------4---------|
A|--2----------------------------2-----------------------------2-|
E|---------------------------------------------------------------|
(Guitar 1)
Old men crying, young men dying, world still turns as Father Time

E|---------------------------------------------------------------|
B|----2-4p2---2-4~-4-4p2---4~(/7)--2-4p2----2-4~-4-4p2---4~(/7)--|
G|----2-4p2-4-2-4~-4-4p2-4-4~(/7)--2-4p2--4-2-4~-4-4p2-4-4~(/7)--|
D|----------4------------4----------------4------------4---------|
A|2-2----------------------------2-----------------------------2-|
E|---------------------------------------------------------------|
(Guitar 1)
looks on. On and on.

E|---------------------------------------------------------------|
B|----2-4p2---2-4~-4-4p2---4~(/7)--2-4p2----2-4~-4-4p2---4~(/7)--|
G|----2-4p2-4-2-4~-4-4p2-4-4~(/7)--2-4p2--4-2-4~-4-4p2-4-4~(/7)--|
D|----------4------------4----------------4------------4---------|
A|--2----------------------------2-----------------------------2-|
E|---------------------------------------------------------------|
(Guitar 1)
Children playing, dreamers praying, laughter turns to tears 'cause

E|---------------------------------------------------------------|
B|----2-4p2---2-4~-4-4p2---4~(/7)--2-4p2----2-4~-4-4p2---4~(/7)--|
G|----2-4p2-4-2-4~-4-4p2-4-4~(/7)--2-4p2--4-2-4~-4-4p2-4-4~(/7)--|
D|----------4------------4----------------4------------4---------|
A|--2----------------------------2-----------------------------2-|
E|---------------------------------------------------------------|
(Guitar 1)
love has gone. Has it gone?

CHOURSE
B B B B B B B B A A A A A A A A E A
E|-------------------------------------------------------------------------|
B|-------------------------------------------------------------------------|
G|xx-8-8--xx-8-8--xx-8-8--xx-8-8--xx-6-6---xx-6-6--xx-6-6--xx-6-6--xx--7-9-|
D|xx-9-9--xx-9-9--xx-9-9--xx-9-9--xx-7-7---xx-7-7--xx-7-7--xx-7-7--xx--7-7-|
A|xx-9-9--xx-9-9--xx-9-9--xx-9-9--xx-7-7---xx-7-7--xx-7-7--xx-7-7--xx--5-7-|
E|xx-7-7--xx-7-7--xx-7-7--xx-7-7--xx-5-5---xx-5-5--xx-5-5--xx-5-5--xx--0-5-|
(Guitar 1)

E|--------------------------------------------------------------------------|
B|--------------------------------------------------------------------------|
G|--8-8------------------------------6-6--------------------------------7-9-|
D|--9-9------------------------------7-7--------------------------------7-7-|
A|--9-9-(Let ring)-------------------7-7---(Let ring)-------------------5-7-|
E|--7-7------------------------------5-5--------------------------------0-5-|
(Guitar 2)
Oh it's a hard road.

B B B B B B B B A A A A A A A A E A
E|-------------------------------------------------------------------------|
B|-------------------------------------------------------------------------|
G|xx-8-8--xx-8-8--xx-8-8--xx-8-8--xx-6-6---xx-6-6--xx-6-6--xx-6-6--xx--7-9-|
D|xx-9-9--xx-9-9--xx-9-9--xx-9-9--xx-7-7---xx-7-7--xx-7-7--xx-7-7--xx--7-7-|
A|xx-9-9--xx-9-9--xx-9-9--xx-9-9--xx-7-7---xx-7-7--xx-7-7--xx-7-7--xx--5-7-|
E|xx-7-7--xx-7-7--xx-7-7--xx-7-7--xx-5-5---xx-5-5--xx-5-5--xx-5-5--xx--0-5-|
(Guitar 1)

E|--------------------------------------------------------------------------|
B|--------------------------------------------------------------------------|
G|--8-8------------------------------6-6--------------------------------7-9-|
D|--9-9------------------------------7-7--------------------------------7-7-|
A|--9-9-(Let ring)-------------------7-7---(Let ring)-------------------5-7-|
E|--7-7------------------------------5-5--------------------------------0-5-|
(Guitar 2)
Oh it's a hard road.

E|---------------------------------------------------------------|
B|----2-4p2---2-4~-4-4p2---4~(/7)--2-4p2----2-4~-4-4p2---4~(/7)--|
G|----2-4p2-4-2-4~-4-4p2-4-4~(/7)--2-4p2--4-2-4~-4-4p2-4-4~(/7)--|
D|----------4------------4----------------4------------4---------|
A|2-2----------------------------2-----------------------------2-|
E|---------------------------------------------------------------|
(Guitar 1)

E|---------------------------------------------------------------|
B|----2-4p2---2-4~-4-4p2---4~(/7)--2-4p2----2-4~-4-4p2---4~(/7)--|
G|----2-4p2-4-2-4~-4-4p2-4-4~(/7)--2-4p2--4-2-4~-4-4p2-4-4~(/7)--|
D|----------4------------4----------------4------------4---------|
A|--2----------------------------2-----------------------------2-|
E|---------------------------------------------------------------|
(Guitar 1)
Poets yearning, lovers learning on this path of life we pass

E|---------------------------------------------------------------|
B|----2-4p2---2-4~-4-4p2---4~(/7)--2-4p2----2-4~-4-4p2---4~(/7)--|
G|----2-4p2-4-2-4~-4-4p2-4-4~(/7)--2-4p2--4-2-4~-4-4p2-4-4~(/7)--|
D|----------4------------4----------------4------------4---------|
A|--2----------------------------2-----------------------------2-|
E|---------------------------------------------------------------|
(Guitar 1)
along. Is it wrong?

E|---------------------------------------------------------------|
B|----2-4p2---2-4~-4-4p2---4~(/7)--2-4p2----2-4~-4-4p2---4~(/7)--|
G|----2-4p2-4-2-4~-4-4p2-4-4~(/7)--2-4p2--4-2-4~-4-4p2-4-4~(/7)--|
D|----------4------------4----------------4------------4---------|
A|--2----------------------------2-----------------------------2-|
E|---------------------------------------------------------------|
(Guitar 1)
Widows weeping, babies sleeping life becomes the singer and the

E|---------------------------------------------------------------|
B|----2-4p2---2-4~-4-4p2---4~(/7)--2-4p2----2-4~-4-4p2---4~(/7)--|
G|----2-4p2-4-2-4~-4-4p2-4-4~(/7)--2-4p2--4-2-4~-4-4p2-4-4~(/7)--|
D|----------4------------4----------------4------------4---------|
A|--2----------------------------2-----------------------------2-|
E|---------------------------------------------------------------|
(Guitar 1)
song. Sing along.

CHOURSE
B B B B B B B B A A A A A A A A E A
E|-------------------------------------------------------------------------|
B|-------------------------------------------------------------------------|
G|xx-8-8--xx-8-8--xx-8-8--xx-8-8--xx-6-6---xx-6-6--xx-6-6--xx-6-6--xx--7-9-|
D|xx-9-9--xx-9-9--xx-9-9--xx-9-9--xx-7-7---xx-7-7--xx-7-7--xx-7-7--xx--7-7-|
A|xx-9-9--xx-9-9--xx-9-9--xx-9-9--xx-7-7---xx-7-7--xx-7-7--xx-7-7--xx--5-7-|
E|xx-7-7--xx-7-7--xx-7-7--xx-7-7--xx-5-5---xx-5-5--xx-5-5--xx-5-5--xx--0-5-|
(Guitar 1)

E|--------------------------------------------------------------------------|
B|--------------------------------------------------------------------------|
G|--8-8------------------------------6-6--------------------------------7-9-|
D|--9-9------------------------------7-7--------------------------------7-7-|
A|--9-9-(Let ring)-------------------7-7---(Let ring)-------------------5-7-|
E|--7-7------------------------------5-5--------------------------------0-5-|
(Guitar 2)
Oh it's a hard road.

B B B B B B B B A A A A A A A A E A
E|-------------------------------------------------------------------------|
B|-------------------------------------------------------------------------|
G|xx-8-8--xx-8-8--xx-8-8--xx-8-8--xx-6-6---xx-6-6--xx-6-6--xx-6-6--xx--7-9-|
D|xx-9-9--xx-9-9--xx-9-9--xx-9-9--xx-7-7---xx-7-7--xx-7-7--xx-7-7--xx--7-7-|
A|xx-9-9--xx-9-9--xx-9-9--xx-9-9--xx-7-7---xx-7-7--xx-7-7--xx-7-7--xx--5-7-|
E|xx-7-7--xx-7-7--xx-7-7--xx-7-7--xx-5-5---xx-5-5--xx-5-5--xx-5-5--xx--0-5-|
(Guitar 1)

E|--------------------------------------------------------------------------|
B|--------------------------------------------------------------------------|
G|--8-8------------------------------6-6--------------------------------7-9-|
D|--9-9------------------------------7-7--------------------------------7-7-|
A|--9-9-(Let ring)-------------------7-7---(Let ring)-------------------5-7-|
E|--7-7------------------------------5-5--------------------------------0-5-|
(Guitar 2)
Car ry your own load.

BRIDGE

E|----------------------------------------------|
B|----------------------------------------------|
G|--------------------------4-8---(⁄3)-xxx-8-8--|
D|4-4-6-4~~--4-4-6-4~-4h6-6---9---(⁄3)-xxx-9-9--|
A|----------------------------9---(⁄3)-xxx-9-9--|
E|----------------------------7---(⁄3)-xxx-7-7--|

E|-------------------------------------------|
B|-------------------------------------------|
G|---------------------------8---(⁄3)-xx-8-8-|
D|-4-4-6-4~~--4-4-6-4~-----4-9---(⁄3)-xx-9-9-|
A|----------------------7-7--9---(⁄3)-xx-9-9-|
E|---------------------------7---(⁄3)-xx-7-7-|
Why make a hard road? Why can't we be friends?

E|----------------------------------------------|
B|----------------------------------------------|
G|--------------------------4-8---(⁄3)-xxx-8-8--|
D|4-4-6-4~~--4-4-6-4~-4h6-6---9---(⁄3)-xxx-9-9--|
A|----------------------------9---(⁄3)-xxx-9-9--|
E|----------------------------7---(⁄3)-xxx-7-7--|

E|-------------------------------------------|
B|-------------------------------------------|
G|---------------------------8---(⁄3)-xx-8-8-|
D|-4-4-6-4~~--4-4-6-4~-----4-9---(⁄3)-xx-9-9-|
A|----------------------7-7--9---(⁄3)-xx-9-9-|
E|---------------------------7---(⁄3)-xx-7-7-|
No need to hurry. We'll meet in the end.

(Guitar 1)

E|------------------------------------------------------------|
B|------------------------------------------------------------|
G|------------------------------------------------------------|
D|-14^(16)p12-----------------14^(16)p12----------------------|
A|-----------14-14~~~~~~~~~~~~------------14-12~~~~~~~~~~~~~~-|
E|------------------------------------------------------------|
(Guitar 2)

E|---------------------------------------------------------------|
B|----2-4p2---2-4~-4-4p2---4~(/7)--2-4p2----2-4~-4-4p2---4~(/7)--|
G|----2-4p2-4-2-4~-4-4p2-4-4~(/7)--2-4p2--4-2-4~-4-4p2-4-4~(/7)--|
D|----------4------------4----------------4------------4---------|
A|2-2----------------------------2-----------------------------2-|
E|---------------------------------------------------------------|
(Guitar 3)

E|-----------------------------------------------|
B|-12------12-----⁄(7)----12------12------⁄(7)---|
G|-14^(16)-14^(16)⁄(9)----14^(16)-14^(16))⁄(9)---|
D|-----------------------------------------------|
A|-----------------------------------------------|
E|-----------------------------------------------|

E|----------------------------------------|
B|-15------15-----⁄(12)---15------15------|
G|-17^(19)-17^(19)⁄(14)---17^(19)-17^(19)-|
D|----------------------------------------|
A|----------------------------------------|
E|----------------------------------------|
(Guitar 1)

E|-----------------------------------------------------------|
B|-----------------------------------------------------------|
G|-----------------------------------------------------------|
D|-14^(16)p12-----------------14^(16)p12---------------------|
A|-----------14-14~~~~~~~~~~~~----------114-12~~~~~~~~~~~~~~-|
E|-----------------------------------------------------------|
(Guitar 2)

E|---------------------------------------------------------------|
B|----2-4p2---2-4~-4-4p2---4~(/7)--2-4p2----2-4~-4-4p2---4~(/7)--|
G|----2-4p2-4-2-4~-4-4p2-4-4~(/7)--2-4p2--4-2-4~-4-4p2-4-4~(/7)--|
D|----------4------------4----------------4------------4---------|
A|--2----------------------------2-----------------------------2-|
E|---------------------------------------------------------------|
(Guitar 3)

E|------------------------------------------------------------------|
B|-13~~~--13~~------------------------------------------------------|
G|-16~~~--16~~-----------------------4-4~~---4-4~----4-6-6^(8)-6-4~-|
D|-------------15⁄(7)------------4h7------4h7-----4h7---------------|
A|-------------15⁄(7)-----------------------------------------------|
E|--------------------(5)/7~~/(9)-----------------------------------|
(Guitar 1)

E|---------------------------------------------------------------|
B|----2-4p2---2-4~-4-4p2---4~(/7)--2-4p2----2-4~-4-4p2---4~(/7)--|
G|----2-4p2-4-2-4~-4-4p2-4-4~(/7)--2-4p2--4-2-4~-4-4p2-4-4~(/7)--|
D|----------4------------4----------------4------------4---------|
A|--2----------------------------2-----------------------------2-|
E|---------------------------------------------------------------|
(Guitar 2)

E|------------------------------------------------|
B|--------9-9-------------------------------------|
G|-4-6^(8)---6~-4--4-6^(9)-4-6-7-4-4-6-6^^(9)-4-4-|
D|---------------6----------------6---------------|
A|------------------------------------------------|
E|------------------------------------------------|
(Guitar 1)

E|---------------------------------------------------------------|
B|----2-4p2---2-4~-4-4p2---4~(/7)--2-4p2----2-4~-4-4p2---4~(/7)--|
G|----2-4p2-4-2-4~-4-4p2-4-4~(/7)--2-4p2--4-2-4~-4-4p2-4-4~(/7)--|
D|----------4------------4----------------4------------4---------|
A|--2----------------------------2-----------------------------2-|
E|---------------------------------------------------------------|
(Guitar 2)

E|-----------------------------------------------------|
B|-----------12~⁄(10)-----------12~⁄(10)---------------|
G|------10-12-------------10-12-----------6-6^(9)-4-4~-|
D|(9)/12------------(9)/12-----------------------------|
A|-----------------------------------------------------|
E|-----------------------------------------------------|

E|---------------------------------------------------------------|
B|----2-4p2---2-4~-4-4p2---4~(/7)--2-4p2----2-4~-4-4p2---4~(/7)--|
G|----2-4p2-4-2-4~-4-4p2-4-4~(/7)--2-4p2--4-2-4~-4-4p2-4-4~(/7)--|
D|----------4------------4----------------4------------4---------|
A|--2----------------------------2-----------------------------2-|
E|---------------------------------------------------------------|
(Guitar 2)

E|-----------------------------------------|
B|-----7-------------------7---------------|
G|6^(9)-6^(9`)-6-4-4--6^(9)-6^(9`)-6-4-4---|
D|-----------------------------------------|
A|-----------------------------------------|
E|-----------------------------------------|

E|----------------------------------------|
B|------7-------------------7-------------|
G|-6^(9)-6^(9`)-6-4-4--6^(9)-6^(9`)-6-4-4-|
D|----------------------------------------|
A|----------------------------------------|
E|----------------------------------------|
(Guitar 1)

E|---------------------------------------------------------------|
B|----2-4p2---2-4~-4-4p2---4~(/7)--2-4p2----2-4~-4-4p2---4~(/7)--|
G|----2-4p2-4-2-4~-4-4p2-4-4~(/7)--2-4p2--4-2-4~-4-4p2-4-4~(/7)--|
D|----------4------------4----------------4------------4---------|
A|--2----------------------------2-----------------------------2-|
E|---------------------------------------------------------------|
(Guitar 2)

E|---------------------------------------------|
B|5^(7-7-7-7-7-7)------7---3-------------------|
G|----------------6^(8)-6-4-4-2----------------|
D|------------------------------4-3-2-2--------|
A|-----------------------------------5--55-4-2-|
E|---------------------------------------------|
(Guitar 1)

E|---------------------------------------------------------------|
B|----2-4p2---2-4~-4-4p2---4~(/7)--2-4p2----2-4~-4-4p2---4~(/7)--|
G|----2-4p2-4-2-4~-4-4p2-4-4~(/7)--2-4p2--4-2-4~-4-4p2-4-4~(/7)--|
D|----------4------------4----------------4------------4---------|
A|--2----------------------------2-----------------------------2-|
E|---------------------------------------------------------------|
(Guitar 2)

E|------------------------------------------------|
B|------------------------------------------------|
G|------------------------------------------------|
D|------------------------------------------------|
A|2--2-2--2-2--2-2--2-2--2-2--2-2--2-2--22-2--2-2-|
E|------------------------------------------------|
(Guitar 1)

BRIDGE

E|----------------------------------------------|
B|----------------------------------------------|
G|--------------------------4-8---(⁄3)-xxx-8-8--|
D|4-4-6-4~~--4-4-6-4~-4h6-6---9---(⁄3)-xxx-9-9--|
A|----------------------------9---(⁄3)-xxx-9-9--|
E|----------------------------7---(⁄3)-xxx-7-7--|

E|-------------------------------------------|
B|-------------------------------------------|
G|---------------------------8---(⁄3)-xx-8-8-|
D|-4-4-6-4~~--4-4-6-4~-----4-9---(⁄3)-xx-9-9-|
A|----------------------7-7--9---(⁄3)-xx-9-9-|
E|---------------------------7---(⁄3)-xx-7-7-|
Why make a hard road? Why can't we be friends?

E|----------------------------------------------|
B|----------------------------------------------|
G|--------------------------4-8---(⁄3)-xxx-8-8--|
D|4-4-6-4~~--4-4-6-4~-4h6-6---9---(⁄3)-xxx-9-9--|
A|----------------------------9---(⁄3)-xxx-9-9--|
E|----------------------------7---(⁄3)-xxx-7-7--|

E|-------------------------------------------|
B|-------------------------------------------|
G|---------------------------8---(⁄3)-xx-8-8-|
D|-4-4-6-4~~--4-4-6-4~-----4-9---(⁄3)-xx-9-9-|
A|----------------------7-7--9---(⁄3)-xx-9-9-|
E|---------------------------7---(⁄3)-xx-7-7-|
No need to hurry. Let's sing it again.

E|---------------------------------------------------------------|
B|----2-4p2---2-4~-4-4p2---4~(/7)--2-4p2----2-4~-4-4p2---4~(/7)--|
G|----2-4p2-4-2-4~-4-4p2-4-4~(/7)--2-4p2--4-2-4~-4-4p2-4-4~(/7)--|
D|----------4------------4----------------4------------4---------|
A|2-2----------------------------2-----------------------------2-|
E|---------------------------------------------------------------|

E|---------------------------------------------------------------|
B|----2-4p2---2-4~-4-4p2---4~(/7)--2-4p2----2-4~-4-4p2---4~(/7)--|
G|----2-4p2-4-2-4~-4-4p2-4-4~(/7)--2-4p2--4-2-4~-4-4p2-4-4~(/7)--|
D|----------4------------4----------------4------------4---------|
A|--2----------------------------2-----------------------------2-|
E|---------------------------------------------------------------|
Others sharing, mothers caring, night time falling victim to the

E|---------------------------------------------------------------|
B|----2-4p2---2-4~-4-4p2---4~(/7)--2-4p2----2-4~-4-4p2---4~(/7)--|
G|----2-4p2-4-2-4~-4-4p2-4-4~(/7)--2-4p2--4-2-4~-4-4p2-4-4~(/7)--|
D|----------4------------4----------------4------------4---------|
A|--2----------------------------2-----------------------------2-|
E|---------------------------------------------------------------|
dawn Shadows mourn.

E|---------------------------------------------------------------|
B|----2-4p2---2-4~-4-4p2---4~(/7)--2-4p2----2-4~-4-4p2---4~(/7)--|
G|----2-4p2-4-2-4~-4-4p2-4-4~(/7)--2-4p2--4-2-4~-4-4p2-4-4~(/7)--|
D|----------4------------4----------------4------------4---------|
A|--2----------------------------2-----------------------------2-|
E|---------------------------------------------------------------|
Days are falling, time is calling to the earth another life is

E|---------------------------------------------------------------|
B|----2-4p2---2-4~-4-4p2---4~(/7)--2-4p2----2-4~-4-4p2---4~(/7)--|
G|----2-4p2-4-2-4~-4-4p2-4-4~(/7)--2-4p2--4-2-4~-4-4p2-4-4~(/7)--|
D|----------4------------4----------------4------------4---------|
A|--2----------------------------2-----------------------------2-|
E|---------------------------------------------------------------|
born. Love lies drawn.

CHOURSE
B B B B B B B B A A A A A A A A E A
E|-------------------------------------------------------------------------|
B|-------------------------------------------------------------------------|
G|xx-8-8--xx-8-8--xx-8-8--xx-8-8--xx-6-6---xx-6-6--xx-6-6--xx-6-6--xx--7-9-|
D|xx-9-9--xx-9-9--xx-9-9--xx-9-9--xx-7-7---xx-7-7--xx-7-7--xx-7-7--xx--7-7-|
A|xx-9-9--xx-9-9--xx-9-9--xx-9-9--xx-7-7---xx-7-7--xx-7-7--xx-7-7--xx--5-7-|
E|xx-7-7--xx-7-7--xx-7-7--xx-7-7--xx-5-5---xx-5-5--xx-5-5--xx-5-5--xx--0-5-|
(Guitar 1)

E|--------------------------------------------------------------------------|
B|--------------------------------------------------------------------------|
G|--8-8------------------------------6-6--------------------------------7-9-|
D|--9-9------------------------------7-7--------------------------------7-7-|
A|--9-9-(Let ring)-------------------7-7---(Let ring)-------------------5-7-|
E|--7-7------------------------------5-5--------------------------------0-5-|
(Guitar 2)
Oh it's a hard road.

B B B B B B B B A A A A A A A A E A
E|-------------------------------------------------------------------------|
B|-------------------------------------------------------------------------|
G|xx-8-8--xx-8-8--xx-8-8--xx-8-8--xx-6-6---xx-6-6--xx-6-6--xx-6-6--xx--7-9-|
D|xx-9-9--xx-9-9--xx-9-9--xx-9-9--xx-7-7---xx-7-7--xx-7-7--xx-7-7--xx--7-7-|
A|xx-9-9--xx-9-9--xx-9-9--xx-9-9--xx-7-7---xx-7-7--xx-7-7--xx-7-7--xx--5-7-|
E|xx-7-7--xx-7-7--xx-7-7--xx-7-7--xx-5-5---xx-5-5--xx-5-5--xx-5-5--xx--0-5-|
(Guitar 1)

E|--------------------------------------------------------------------------|
B|--------------------------------------------------------------------------|
G|--8-8------------------------------6-6--------------------------------7-9-|
D|--9-9------------------------------7-7--------------------------------7-7-|
A|--9-9-(Let ring)-------------------7-7---(Let ring)-------------------5-7-|
E|--7-7------------------------------5-5--------------------------------0-5-|
(Guitar 2)
Car ry your own load.

B B B B B B B B A A A A A A A A E A
E|-------------------------------------------------------------------------|
B|-------------------------------------------------------------------------|
G|xx-8-8--xx-8-8--xx-8-8--xx-8-8--xx-6-6---xx-6-6--xx-6-6--xx-6-6--xx--7-9-|
D|xx-9-9--xx-9-9--xx-9-9--xx-9-9--xx-7-7---xx-7-7--xx-7-7--xx-7-7--xx--7-7-|
A|xx-9-9--xx-9-9--xx-9-9--xx-9-9--xx-7-7---xx-7-7--xx-7-7--xx-7-7--xx--5-7-|
E|xx-7-7--xx-7-7--xx-7-7--xx-7-7--xx-5-5---xx-5-5--xx-5-5--xx-5-5--xx--0-5-|
(Guitar 1)

E|--------------------------------------------------------------------------|
B|--------------------------------------------------------------------------|
G|--8-8------------------------------6-6--------------------------------7-9-|
D|--9-9------------------------------7-7--------------------------------7-7-|
A|--9-9-(Let ring)-------------------7-7---(Let ring)-------------------5-7-|
E|--7-7------------------------------5-5--------------------------------0-5-|
(Guitar 2)
Oh it's a hard road.

B B B B B B B B A A A A A A A A E A
E|-------------------------------------------------------------------------|
B|-------------------------------------------------------------------------|
G|xx-8-8--xx-8-8--xx-8-8--xx-8-8--xx-6-6---xx-6-6--xx-6-6--xx-6-6--xx--7-9-|
D|xx-9-9--xx-9-9--xx-9-9--xx-9-9--xx-7-7---xx-7-7--xx-7-7--xx-7-7--xx--7-7-|
A|xx-9-9--xx-9-9--xx-9-9--xx-9-9--xx-7-7---xx-7-7--xx-7-7--xx-7-7--xx--5-7-|
E|xx-7-7--xx-7-7--xx-7-7--xx-7-7--xx-5-5---xx-5-5--xx-5-5--xx-5-5--xx--0-5-|
(Guitar 1)

E|--------------------------------------------------------------------------|
B|--------------------------------------------------------------------------|
G|--8-8------------------------------6-6--------------------------------7-9-|
D|--9-9------------------------------7-7--------------------------------7-7-|
A|--9-9-(Let ring)-------------------7-7---(Let ring)-------------------5-7-|
E|--7-7------------------------------5-5--------------------------------0-5-|
(Guitar 2)
Oh it's a hard road.

B B B B B B B B A A A A A A A A E A
E|-------------------------------------------------------------------------|
B|-------------------------------------------------------------------------|
G|xx-8-8--xx-8-8--xx-8-8--xx-8-8--xx-6-6---xx-6-6--xx-6-6--xx-6-6--xx--7-9-|
D|xx-9-9--xx-9-9--xx-9-9--xx-9-9--xx-7-7---xx-7-7--xx-7-7--xx-7-7--xx--7-7-|
A|xx-9-9--xx-9-9--xx-9-9--xx-9-9--xx-7-7---xx-7-7--xx-7-7--xx-7-7--xx--5-7-|
E|xx-7-7--xx-7-7--xx-7-7--xx-7-7--xx-5-5---xx-5-5--xx-5-5--xx-5-5--xx--0-5-|
(Guitar 1)

E|--------------------------------------------------------------------------|
B|--------------------------------------------------------------------------|
G|--8-8------------------------------6-6--------------------------------7-9-|
D|--9-9------------------------------7-7--------------------------------7-7-|
A|--9-9-(Let ring)-------------------7-7---(Let ring)-------------------5-7-|
E|--7-7------------------------------5-5--------------------------------0-5-|
(Guitar 2)
Forget all your sorrows, don't live in the past, and look to the future 'cause
life goes too fast, you know.
Oh it's a hard road.

E|-------------------------------------------------------------------------|
B|-------------------------------------------------------------------------|
G|xx-8-8--xx-8-8--xx-8-8--xx-8-8--xx-6-6---xx-6-6--xx-6-6--xx-6-6--xx--7-9-|
D|xx-9-9--xx-9-9--xx-9-9--xx-9-9--xx-7-7---xx-7-7--xx-7-7--xx-7-7--xx--7-7-|
A|xx-9-9--xx-9-9--xx-9-9--xx-9-9--xx-7-7---xx-7-7--xx-7-7--xx-7-7--xx--5-7-|
E|xx-7-7--xx-7-7--xx-7-7--xx-7-7--xx-5-5---xx-5-5--xx-5-5--xx-5-5--xx--0-5-|
(Guitar 1)

E|--------------------------------------------------------------------------|
B|--------------------------------------------------------------------------|
G|--8-8------------------------------6-6--------------------------------7-9-|
D|--9-9------------------------------7-7--------------------------------7-7-|
A|--9-9-(Let ring)-------------------7-7---(Let ring)-------------------5-7-|
E|--7-7------------------------------5-5--------------------------------0-5-|
(Guitar 2)
(1) Forget all your sorrows, don't live in the past, and look to the
future 'cause life goes too fast, you know.
(2) Oh it's a hard road.
(3) Oooh oohuh, oooh ooohuh, oooh ooohuh, oooh ooohuh oooh ooohuh

B B B B B B B B A A A A A A A A E A
E|-------------------------------------------------------------------------|
B|-------------------------------------------------------------------------|
G|xx-8-8--xx-8-8--xx-8-8--xx-8-8--xx-6-6---xx-6-6--xx-6-6--xx-6-6--xx--7-9-|
D|xx-9-9--xx-9-9--xx-9-9--xx-9-9--xx-7-7---xx-7-7--xx-7-7--xx-7-7--xx--7-7-|
A|xx-9-9--xx-9-9--xx-9-9--xx-9-9--xx-7-7---xx-7-7--xx-7-7--xx-7-7--xx--5-7-|
E|xx-7-7--xx-7-7--xx-7-7--xx-7-7--xx-5-5---xx-5-5--xx-5-5--xx-5-5--xx--0-5-|
(Guitar 1)

E|--------------------------------------------------------------------------|
B|--------------------------------------------------------------------------|
G|--8-8------------------------------6-6--------------------------------7-9-|
D|--9-9------------------------------7-7--------------------------------7-7-|
A|--9-9-(Let ring)-------------------7-7---(Let ring)-------------------5-7-|
E|--7-7------------------------------5-5--------------------------------0-5-|
(Guitar 2)
(1) Forget all your sorrows, don't live in the past, and look to the
future 'cause life goes too fast, you know.
(2) Oh it's a hard road.
(3) Oooh oohuh, oooh ooohuh, oooh ooohuh, oooh ooohuh oooh ooohuh

B B B B B B B B A A A A A A A A E A
E|-------------------------------------------------------------------------|
B|-------------------------------------------------------------------------|
G|xx-8-8--xx-8-8--xx-8-8--xx-8-8--xx-6-6---xx-6-6--xx-6-6--xx-6-6--xx--7-9-|
D|xx-9-9--xx-9-9--xx-9-9--xx-9-9--xx-7-7---xx-7-7--xx-7-7--xx-7-7--xx--7-7-|
A|xx-9-9--xx-9-9--xx-9-9--xx-9-9--xx-7-7---xx-7-7--xx-7-7--xx-7-7--xx--5-7-|
E|xx-7-7--xx-7-7--xx-7-7--xx-7-7--xx-5-5---xx-5-5--xx-5-5--xx-5-5--xx--0-5-|
(Guitar 1)

E|--------------------------------------------------------------------------|
B|--------------------------------------------------------------------------|
G|--8-8------------------------------6-6--------------------------------7-9-|
D|--9-9------------------------------7-7--------------------------------7-7-|
A|--9-9-(Let ring)-------------------7-7---(Let ring)-------------------5-7-|
E|--7-7------------------------------5-5--------------------------------0-5-|
(Guitar 2) (Begin fade)
(1) Forget all your sorrows, don't live in the past, and look to the
future 'cause life goes too fast, you know.
(2) Oh it's a hard road.
(3) Oooh oohuh, oooh ooohuh, oooh ooohuh, oooh ooohuh oooh ooohuh

B B B B B B B B A A A A A A A A E A
E|-------------------------------------------------------------------------|
B|-------------------------------------------------------------------------|
G|xx-8-8--xx-8-8--xx-8-8--xx-8-8--xx-6-6---xx-6-6--xx-6-6--xx-6-6--xx--7-9-|
D|xx-9-9--xx-9-9--xx-9-9--xx-9-9--xx-7-7---xx-7-7--xx-7-7--xx-7-7--xx--7-7-|
A|xx-9-9--xx-9-9--xx-9-9--xx-9-9--xx-7-7---xx-7-7--xx-7-7--xx-7-7--xx--5-7-|
E|xx-7-7--xx-7-7--xx-7-7--xx-7-7--xx-5-5---xx-5-5--xx-5-5--xx-5-5--xx--0-5-|
(Guitar 1)

E|--------------------------------------------------------------------------|
B|--------------------------------------------------------------------------|
G|--8-8------------------------------6-6--------------------------------7-9-|
D|--9-9------------------------------7-7--------------------------------7-7-|
A|--9-9-(Let ring)-------------------7-7---(Let ring)-------------------5-7-|
E|--7-7------------------------------5-5--------------------------------0-5-|
(Guitar 2)
(1) Forget all your sorrows, don't live in the past, and look to the
future 'cause life goes too fast, you know.
(2) Oh it's a hard road.
(3) Oooh oohuh, oooh ooohuh, oooh ooohuh, oooh ooohuh oooh ooohuh

Тональность:

Это должно быть в ТОП-листе! - Топ-лист композиций



Назад
Рекомендуем посмотреть другие песни исполнителя «Black Sabbath»:

  • Комменты Fb ()
  • Комменты ВК



Добавить в Избранное Браузера
Сохранить здесь Очистить


x

0


+
-

+
-

-

Авторизация





Зарегистрироваться

M

Дата и время

  • 04:10:18
     

Социальные ссылки


Наши приложения

  • Muzbank App Play Market
  • Muzbank Amazon App