MUZBANK


МУЗЫКАЛЬНО-ИНФОРМАЦИОННЫЙ БАНК





BBlack Sabbath • Hole In The Sky (аккорды и текст - chords & lyrics)


562

Print

Видео «Hole In The Sky (Black Sabbath)»

Видео клипы к песне подбираются автоматически сайтом youtube. Возможны некоторые несоответствия клипов песне.

↑ Спрятать рекламу ↑






C D D C
E|----------------------------------------------------------------------|
B|----------------------------------------------------------------------|
G|----------------------------------------------------------------------|
D|--7p5h7---7p5h7----5-7p5h7-----------7pp5h7---7p5h7----5-7p5h7--------|
A|-------0--------0----------10--12-----------0-------0----------12--10-|
E|5------5--------5-----------8--10--5--------5-------5----------10---8-|

C D D C
E|----------------------------------------------------------------------|
B|----------------------------------------------------------------------|
G|----------------------------------------------------------------------|
D|--7p5h7---7p5h7----5-7p5h7-----------7pp5h7---7p5h7----5-7p5h7--------|
A|-------0--------0----------10--12-----------0-------0----------12--10-|
E|5------5--------5-----------8--10--5--------5-------5----------10---8-|

E|-----------------------------------------|
B|-----------------------------------------|
G|-----(0)-5/7⁄5~--------------------------|
D|---------------(0)-5/7⁄5~----------------|
A|-------------------------(0)-5/7⁄5~(/7))-|
E|(5)-5------------------------------------|

E|--------------------------------------|
B|--------------------------------------|
G|---(0)-5/7⁄5~-------------------------|
D|-------------(0)-5/7⁄5~---------------|
A|-----------------------(0)-5/7⁄5~(/7)-|
E|5-------------------------------------|

E|--------------------------------------|
B|--------------------------------------|
G|---(0)-5/7⁄5~-------------------------|
D|-------------(0)-5/7⁄5~---------------|
A|-----------------------(0)-5/7⁄5~(/7)-|
E|5-------------------------------------|

E|--------------------------------------|
B|--------------------------------------|
G|---(0)-5/7⁄5~-------------------------|
D|-------------(0)-5/7⁄5~---------------|
A|-----------------------(0)-5/7⁄5~(/7)-|
E|5-------------------------------------|

C D D C
E|----------------------------------------------------------------------|
B|----------------------------------------------------------------------|
G|----------------------------------------------------------------------|
D|--7p5h7---7p5h7----5-7p5h7-----------7pp5h7---7p5h7----5-7p5h7--------|
A|-------0--------0----------10--12-----------0-------0----------12--10-|
E|5------5--------5-----------8--10--5--------5-------5----------10---8-|
I'm looking through, a hole in the sky,
I'm seeing nowhere through the eyes of a lie

C D D C
E|----------------------------------------------------------------------|
B|----------------------------------------------------------------------|
G|----------------------------------------------------------------------|
D|--7p5h7---7p5h7----5-7p5h7-----------7pp5h7---7p5h7----5-7p5h7--------|
A|-------0--------0----------10--12-----------0-------0----------12--10-|
E|5------5--------5-----------8--10--5--------5-------5----------10---8-|
I'm getting closer to the end of the line.
I'm living easy where the sun doesn't shine.

E|--------------------------------------|
B|--------------------------------------|
G|---(0)-5/7⁄5~-------------------------|
D|-------------(0)-5/7⁄5~---------------|
A|-----------------------(0)-5/7⁄5~(/7)-|
E|5-------------------------------------|

E|--------------------------------------|
B|--------------------------------------|
G|---(0)-5/7⁄5~-------------------------|
D|-------------(0)-5/7⁄5~---------------|
A|-----------------------(0)-5/7⁄5~(/7)-|
E|5-------------------------------------|

E|--------------------------------------|
B|--------------------------------------|
G|---(0)-5/7⁄5~-------------------------|
D|-------------(0)-5/7⁄5~---------------|
A|-----------------------(0)-5/7⁄5~(/7)-|
E|5-------------------------------------|

E|--------------------------------------|
B|--------------------------------------|
G|---(0)-5/7⁄5~-------------------------|
D|-------------(0)-5/7⁄5~---------------|
A|-----------------------(0)-5/7⁄5~(/7)-|
E|5-------------------------------------|

C D D C
E|----------------------------------------------------------------------|
B|----------------------------------------------------------------------|
G|----------------------------------------------------------------------|
D|--7p5h7---7p5h7----5-7p5h7-----------7pp5h7---7p5h7----5-7p5h7--------|
A|-------0--------0----------10--12-----------0-------0----------12--10-|
E|5------5--------5-----------8--10--5--------5-------5----------10---8-|
I'm living in a room without any view,
I'm living free because the rent's never due

C D D C
E|----------------------------------------------------------------------|
B|----------------------------------------------------------------------|
G|----------------------------------------------------------------------|
D|--7p5h7---7p5h7----5-7p5h7-----------7pp5h7---7p5h7----5-7p5h7--------|
A|-------0--------0----------10--12-----------0-------0----------12--10-|
E|5------5--------5-----------8--10--5--------5-------5----------10---8-|
The synonym of all the things that I've said,
are just the riddles that are built in my
head

CHOURSE (1:31)

E|---------------------------------------------------------------------|
B|10-10⁄(7)--------10-10⁄(7)--(x-x)--10-110⁄(7)-------10-10⁄(7)--(x-x)-|
G|10-10⁄(7)--------10-10⁄(7)--(x-x)--10-110⁄(7)-------10-10⁄(7)--(x-x)-|
D|10-10⁄(7)--------10-10⁄(7)--(x-x)--10-110⁄(7)-------10-10⁄(7)--(x-x)-|
A|-----------8h10-------------------------------8h10-------------------|
E|---------------------------------------------------------------------|
Hole in the Sky,

E|---------------------------------------------------------------------|
B|10-10⁄(7)--------10-10⁄(7)--(x-x)--10-110⁄(7)-------10-10⁄(7)--(x-x)-|
G|10-10⁄(7)--------10-10⁄(7)--(x-x)--10-110⁄(7)-------10-10⁄(7)--(x-x)-|
D|10-10⁄(7)--------10-10⁄(7)--(x-x)--10-110⁄(7)-------10-10⁄(7)--(x-x)-|
A|-----------8h10-------------------------------8h10-------------------|
E|---------------------------------------------------------------------|
Gateway to Heaven,

E|---------------------------------------------------------------------|
B|10-10⁄(7)--------10-10⁄(7)--(x-x)--10-110⁄(7)-------10-10⁄(7)--(x-x)-|
G|10-10⁄(7)--------10-10⁄(7)--(x-x)--10-110⁄(7)-------10-10⁄(7)--(x-x)-|
D|10-10⁄(7)--------10-10⁄(7)--(x-x)--10-110⁄(7)-------10-10⁄(7)--(x-x)-|
A|-----------8h10-------------------------------8h10-------------------|
E|---------------------------------------------------------------------|
Window in Time,
C C C B
E|------------------------------|
B|------------------------------|
G|------------------------------|
D|------------------------------|
A|-10-----10-----10----9--------|
E|--8------8------8----7/(12⁄7)-|
Through which I'll fly!

C D D C
E|----------------------------------------------------------------------|
B|----------------------------------------------------------------------|
G|----------------------------------------------------------------------|
D|--7p5h7---7p5h7----5-7p5h7-----------7pp5h7---7p5h7----5-7p5h7--------|
A|-------0--------0----------10--12-----------0-------0----------12--10-|
E|5------5--------5-----------8--10--5--------5-------5----------10---8-|

C D D C
E|----------------------------------------------------------------------|
B|----------------------------------------------------------------------|
G|----------------------------------------------------------------------|
D|--7p5h7---7p5h7----5-7p5h7-----------7pp5h7---7p5h7----5-7p5h7--------|
A|-------0--------0----------10--12-----------0-------0----------12--10-|
E|5------5--------5-----------8--10--5--------5-------5----------10---8-|

C D D C
E|----------------------------------------------------------------------|
B|----------------------------------------------------------------------|
G|----------------------------------------------------------------------|
D|--7p5h7---7p5h7----5-7p5h7-----------7pp5h7---7p5h7----5-7p5h7--------|
A|-------0--------0----------10--12-----------0-------0----------12--10-|
E|5------5--------5-----------8--10--5--------5-------5----------10---8-|
I've seen the stars that dissappear in the sun,
shooting's easy if you've got the right
gun,

C D D C
E|----------------------------------------------------------------------|
B|----------------------------------------------------------------------|
G|----------------------------------------------------------------------|
D|--7p5h7---7p5h7----5-7p5h7-----------7pp5h7---7p5h7----5-7p5h7--------|
A|-------0--------0----------10--12-----------0-------0----------12--10-|
E|5------5--------5-----------8--10--5--------5-------5----------10---8-|
And though I'm sitting here waiting for Mars,
I don't believe there's any future in
"Cause"

CHOURSE (1:31)

E|---------------------------------------------------------------------|
B|10-10⁄(7)--------10-10⁄(7)--(x-x)--10-110⁄(7)-------10-10⁄(7)--(x-x)-|
G|10-10⁄(7)--------10-10⁄(7)--(x-x)--10-110⁄(7)-------10-10⁄(7)--(x-x)-|
D|10-10⁄(7)--------10-10⁄(7)--(x-x)--10-110⁄(7)-------10-10⁄(7)--(x-x)-|
A|-----------8h10-------------------------------8h10-------------------|
E|---------------------------------------------------------------------|
Hole in the Sky,

E|---------------------------------------------------------------------|
B|10-10⁄(7)--------10-10⁄(7)--(x-x)--10-110⁄(7)-------10-10⁄(7)--(x-x)-|
G|10-10⁄(7)--------10-10⁄(7)--(x-x)--10-110⁄(7)-------10-10⁄(7)--(x-x)-|
D|10-10⁄(7)--------10-10⁄(7)--(x-x)--10-110⁄(7)-------10-10⁄(7)--(x-x)-|
A|-----------8h10-------------------------------8h10-------------------|
E|---------------------------------------------------------------------|
Gateway to Heaven,

E|---------------------------------------------------------------------|
B|10-10⁄(7)--------10-10⁄(7)--(x-x)--10-110⁄(7)-------10-10⁄(7)--(x-x)-|
G|10-10⁄(7)--------10-10⁄(7)--(x-x)--10-110⁄(7)-------10-10⁄(7)--(x-x)-|
D|10-10⁄(7)--------10-10⁄(7)--(x-x)--10-110⁄(7)-------10-10⁄(7)--(x-x)-|
A|-----------8h10-------------------------------8h10-------------------|
E|---------------------------------------------------------------------|
Window in Time,
C C C B
E|------------------------------|
B|------------------------------|
G|------------------------------|
D|------------------------------|
A|-10-----10-----10----9--------|
E|--8------8------8----7/(12⁄7)-|
Through which I'll fly! Yeah!!

LEAD (2:40)
(2:51)
E|--------------------------------------------------------|
B|8p5-10~----8p5-10--10-10~~---8p5------------------------|
G|---7----------7-----------------7-7/9-77/9~-7/9~--7p5---|
D|-----------------------------------------------------7~-|
A|--------------------------------------------------------|
E|--------------------------------------------------------|
(Guitar 1)
(2:51)
E|------------------------------------------------------------------|
B|(5)/10~-----------------------------------------------------------|
G|-----------------------------8p5----------------------------------|
D|-----------7p5--7---7-7~~-------7-7^(9))-7^(9~)-7^(9~)-7^(9`7)-5~-|
A|--------------7---------------------------------------------------|
E|------------------------------------------------------------------|
(Guitar 2)
C D D C
E|----------------------------------------------------------------------|
B|----------------------------------------------------------------------|
G|----------------------------------------------------------------------|
D|--7p5h7---7p5h7----5-7p5h7-----------7pp5h7---7p5h7----5-7p5h7--------|
A|-------0--------0----------10--12-----------0-------0----------12--10-|
E|5------5--------5-----------8--10--5--------5-------5----------10---8-|
(Guitar 3)

(2:54-2:56)
E|---------------------------------------|
B|----5-8-------5-8------5-8--10--10-10~-|
G|7^9)-----7^(9)----7^(9)----------------|
D|---------------------------------------|
A|---------------------------------------|
E|---------------------------------------|
(Guitar 1)
(2:54-2:56)
E|--------------------------------------|
B|-------------5-8------5-8--10--10-10~-|
G|--------7^(9)----7^(9)----------------|
D|--------------------------------------|
A|--------------------------------------|
E|--------------------------------------|
(Guitar 2)

C D D C
E|----------------------------------------------------------------------|
B|----------------------------------------------------------------------|
G|----------------------------------------------------------------------|
D|--7p5h7---7p5h7----5-7p5h7-----------7pp5h7---7p5h7----5-7p5h7--------|
A|-------0--------0----------10--12-----------0-------0----------12--10-|
E|5------5--------5-----------8--10--5--------5-------5----------10---8-|
(Guitar 3)
(3:02)
E|----8-10^(12)-----8-10^(12`10)------8-110^(12--|
B|8h10----------8h10-------------8h10------------|
G|-----------------------------------------------|
D|-----------------------------------------------|
A|-----------------------------------------------|
E|-----------------------------------------------|

E|-12-12`10)-8h10---10^(12-12-12-12`10)-8-|
B|----------------8-----------------------|
G|----------------------------------------|
D|----------------------------------------|
A|----------------------------------------|
E|----------------------------------------|
(Guitar 1)
(3:02)
E|----8-10^(12)-----8-10^(12`10)------8-110^(12--|
B|8h10----------8h10-------------8h10------------|
G|-----------------------------------------------|
D|-----------------------------------------------|
A|-----------------------------------------------|
E|-----------------------------------------------|

E|-12-12`10)-8h10---10^(12-12-12-12`10)-8-|
B|----------------8-----------------------|
G|----------------------------------------|
D|----------------------------------------|
A|----------------------------------------|
E|----------------------------------------|
(Guitar 2)
C D (3:02) D C (3:05)
E|----------------------------------------------------------------------|
B|----------------------------------------------------------------------|
G|----------------------------------------------------------------------|
D|--7p5h7---7p5h7----5-7p5h7-----------7pp5h7---7p5h7----5-7p5h7--------|
A|-------0--------0----------10--12-----------0-------0----------12--10-|
E|5------5--------5-----------8--10--5--------5-------5----------10---8-|
(Guitar 3)
(3:07)
E|12^(14-14-14)--12^(14-14-14)--12^(14-144-14)--|
B|----------------------------------------------|
G|----------------------------------------------|
D|----------------------------------------------|
A|----------------------------------------------|
E|----------------------------------------------|

E|-12^(14-14-14)--12^(14-14`12)-10-12p10-----|
B|---------------------------------------10~-|
G|-------------------------------------------|
D|-------------------------------------------|
A|-------------------------------------------|
E|-------------------------------------------|
(Guitar 1)
(3:07)
E|12^(14-14-14)--12^(14-14-14)--12^(14-144-14)--|
B|----------------------------------------------|
G|----------------------------------------------|
D|----------------------------------------------|
A|----------------------------------------------|
E|----------------------------------------------|

E|-12^(14-14-14)--12^(14-14`12)-10-12p10-----|
B|---------------------------------------10~-|
G|-------------------------------------------|
D|-------------------------------------------|
A|-------------------------------------------|
E|-------------------------------------------|
(Guitar 2)
C D D C (3:12)
E|----------------------------------------------------------------------|
B|----------------------------------------------------------------------|
G|----------------------------------------------------------------------|
D|--7p5h7---7p5h7----5-7p5h7-----------7pp5h7---7p5h7----5-7p5h7--------|
A|-------0--------0----------10--12-----------0-------0----------12--10-|
E|5------5--------5-----------8--10--5--------5-------5----------10---8-|
(Guitar 3)
(3:12)
E|14^(16-16-16-16`14)-12~-14^(16)-14-14p112-----|
B|-----------------------------------------10~~-|
G|----------------------------------------------|
D|----------------------------------------------|
A|----------------------------------------------|
E|----------------------------------------------|
(Guitar 1)
(3:12)
E|14^(16-16-16-16`14)-12~-14^(16)-------------|
B|--------------------------------------------|
G|---------------------------------5-7p5------|
D|----------------------------------------7~~-|
A|--------------------------------------------|
E|--------------------------------------------|
(Guitar 2)
C D D C
E|----------------------------------------------------------------------|
B|----------------------------------------------------------------------|
G|----------------------------------------------------------------------|
D|--7p5h7---7p5h7----5-7p5h7-----------7pp5h7---7p5h7----5-7p5h7--------|
A|-------0--------0----------10--12-----------0-------0----------12--10-|
E|5------5--------5-----------8--10--5--------5-------5----------10---8-|
I've seen the Dogs of War enjoying their feast,
I've seen the Western World go down in
the East
C D D C
E|----------------------------------------------------------------------|
B|----------------------------------------------------------------------|
G|----------------------------------------------------------------------|
D|--7p5h7---7p5h7----5-7p5h7-----------7pp5h7---7p5h7----5-7p5h7--------|
A|-------0--------0----------10--12-----------0-------0----------12--10-|
E|5------5--------5-----------8--10--5--------5-------5----------10---8-|
The Food of Love became the greed of our time,
and now we're living on the profits of
crime.

E|--------------------------------------|
B|--------------------------------------|
G|---(0)-5/7⁄5~-------------------------|
D|-------------(0)-5/7⁄5~---------------|
A|-----------------------(0)-5/7⁄5~(/7)-|
E|5-------------------------------------|

E|--------------------------------------|
B|--------------------------------------|
G|---(0)-5/7⁄5~-------------------------|
D|-------------(0)-5/7⁄5~---------------|
A|-----------------------(0)-5/7⁄5~(/7)-|
E|5-------------------------------------|

E|--------------------------------------|
B|--------------------------------------|
G|---(0)-5/7⁄5~-------------------------|
D|-------------(0)-5/7⁄5~---------------|
A|-----------------------(0)-5/7⁄5~(/7)-|
E|5-------------------------------------|

E|--------------------------------------|
B|--------------------------------------|
G|---(0)-5/7⁄5~-------------------------|
D|-------------(0)-5/7⁄5~---------------|
A|-----------------------(0)-5/7⁄5~(/7)-|
E|5-------------------------------------|

C D D C
E|----------------------------------------------------------------------|
B|----------------------------------------------------------------------|
G|----------------------------------------------------------------------|
D|--7p5h7---7p5h7----5-7p5h7-----------7pp5h7---7p5h7----5-7p5h7--------|
A|-------0--------0----------10--12-----------0-------0----------12--10-|
E|5------5--------5-----------8--10--5--------5-------5----------10---8-|

C D
E|------------------------------------------------------|
B|------------------------------------------------------|
G|------------------------------------------------------|
D|--7p5h7---7p5h7----5-7p5h7-----------7pp5h7---7p5h7---|
A|-------0--------0----------10--12-----------0-------0-|
E|5------5--------5-----------8--10--5--------5-------5-|

Тональность:

Это должно быть в ТОП-листе! - Топ-лист композиций



Назад
Рекомендуем посмотреть другие песни исполнителя «Black Sabbath»:

  • Комменты Fb ()
  • Комменты ВК



Добавить в Избранное Браузера
Сохранить здесь Очистить


x

0


+
-

+
-

-

Авторизация





Зарегистрироваться

M

Дата и время

  • 02:24:09
     

Социальные ссылки


Наши приложения

  • Muzbank App Play Market
  • Muzbank Amazon App