MUZBANK



A MOST COMPLETE BANK OF MUSIC INFORMATION

МУЗЫКАЛЬНО-ИНФОРМАЦИОННЫЙ БАНК





BBlack Sabbath • I`m Gone (аккорды и текст - chords & lyrics)


419

Print

Видео «I`m Gone (Black Sabbath)»

Видео клипы к песне подбираются автоматически сайтом youtube. Возможны некоторые несоответствия клипов песне.

↑ Спрятать рекламу ↑





[f]
E|--------------------------------------------------------|
B|--------------------------------------------------------|
G|--------------------------------------------------------|
D|---------------------------2~~-----------------------2~-|
A|-----------(3)/5-4~------2----------(33)/5-4~-----------|
E|(16)s⁄-0-0---------4p0-4------0-0--------------0-0-4----|
{..pm.} {.pm.}

E|--------------------------------------------------|
B|--------------------------------------------------|
G|--------------------------------------------------|
D|---------------------2~~-----------------------2~-|
A|-----(3)/5-4~------2----------(3)/5-4~~-----------|
E|-0-0---------4p0-4------0-0--------------0-0-4----|
{..pm.} {.pm.}

E|--------------------------------------------------|
B|--------------------------------------------------|
G|--------------------------------------------------|
D|---------------------2~~-----------------------2~-|
A|-----(3)/5-4~------2----------(3)/5-4~~-----------|
E|-0-0---------4p0-4------0-0--------------0-0-4----|
{..pm.} {.pm.}

E|--------------------------------------------------|
B|--------------------------------------------------|
G|--------------------------------------------------|
D|---------------------2~~-----------------------2~-|
A|-----(3)/5-4~------2----------(3)/5-4~~-----------|
E|-0-0---------4p0-4------0-0--------------0-0-4----|
{..pm.} {.pm.}
Yeah, yeah In a

E|--------------------------------------------------|
B|--------------------------------------------------|
G|--------------------------------------------------|
D|---------------------2~~-----------------------2~-|
A|-----(3)/5-4~------2----------(3)/5-4~~-----------|
E|-0-0---------4p0-4------0-0--------------0-0-4----|
{..pm.} {.pm.}
dream I had a final vision, How come you just wanna be my friend?

E|--------------------------------------------------|
B|--------------------------------------------------|
G|--------------------------------------------------|
D|---------------------2~~-----------------------2~-|
A|-----(3)/5-4~------2----------(3)/5-4~~-----------|
E|-0-0---------4p0-4------0-0--------------0-0-4----|
{..pm.} {.pm.}
How come? Will you ever

E|--------------------------------------------------|
B|--------------------------------------------------|
G|--------------------------------------------------|
D|---------------------2~~-----------------------2~-|
A|-----(3)/5-4~------2----------(3)/5-4~~-----------|
E|-0-0---------4p0-4------0-0--------------0-0-4----|
{..pm.} {.pm.}
have justified, the hidden meaning in your time again?

E|--------------------------------------------------|
B|--------------------------------------------------|
G|--------------------------------------------------|
D|---------------------2~~-----------------------2~-|
A|-----(3)/5-4~------2----------(3)/5-4~~-----------|
E|-0-0---------4p0-4------0-0--------------0-0-4----|
{..pm.} {.pm.}
hey yeah!

CHOURSE
B⁄A#⁄A B A# A B A~
E|------------------------------------------------------------------|
B|------------------------------------------------------------------|
G|------------------------------------------------------------------|
D|------------------------------------------------------------------|
A|--------9⁄8⁄7------------9--8--7------------9⁄8⁄7------------9-7~-|
E|0---0-0-7⁄6⁄5---0---0-0--7--6--5---0----0-0-7⁄6⁄5---0---0-0--7-5~-|
{pm} {pm}
I'm gone, gone just like the past

B⁄A#⁄A B A# A B A~
E|------------------------------------------------------------------|
B|------------------------------------------------------------------|
G|------------------------------------------------------------------|
D|------------------------------------------------------------------|
A|--------9⁄8⁄7------------9--8--7------------9⁄8⁄7------------9-7~-|
E|0---0-0-7⁄6⁄5---0---0-0--7--6--5---0----0-0-7⁄6⁄5---0---0-0--7-5~-|
{pm} {pm} {pm}
Because I'm gone and you won't be the last

B⁄A#⁄A B A# A B A~
E|------------------------------------------------------------------|
B|------------------------------------------------------------------|
G|------------------------------------------------------------------|
D|------------------------------------------------------------------|
A|--------9⁄8⁄7------------9--8--7------------9⁄8⁄7------------9-7~-|
E|0---0-0-7⁄6⁄5---0---0-0--7--6--5---0----0-0-7⁄6⁄5---0---0-0--7-5~-|
{pm} {pm} {pm}
'Cause I'll be strong Can you hear my voice?

B⁄A#⁄A B A# A B A~
E|------------------------------------------------------------------|
B|------------------------------------------------------------------|
G|------------------------------------------------------------------|
D|------------------------------------------------------------------|
A|--------9⁄8⁄7------------9--8--7------------9⁄8⁄7------------9-7~-|
E|0---0-0-7⁄6⁄5---0---0-0--7--6--5---0----0-0-7⁄6⁄5---0---0-0--7-5~-|
{pm} {pm} {pm}
Because I'm gone! Hey!!

E|--------------------------------------------------|
B|--------------------------------------------------|
G|--------------------------------------------------|
D|---------------------2~~-----------------------2~-|
A|-----(3)/5-4~------2----------(3)/5-4~~-----------|
E|-0-0---------4p0-4------0-0--------------0-0-4----|
{..pm.} {.pm.}
In an ordinary complication, I've come to my realization

E|--------------------------------------------------|
B|--------------------------------------------------|
G|--------------------------------------------------|
D|---------------------2~~-----------------------2~-|
A|-----(3)/5-4~------2----------(3)/5-4~~-----------|
E|-0-0---------4p0-4------0-0--------------0-0-4----|
{..pm.} {.pm.}
Hey, I've come. Well

E|--------------------------------------------------|
B|--------------------------------------------------|
G|--------------------------------------------------|
D|---------------------2~~-----------------------2~-|
A|-----(3)/5-4~------2----------(3)/5-4~~-----------|
E|-0-0---------4p0-4------0-0--------------0-0-4----|
{..pm.} {.pm.}
you came to me with every skill, how come I had let you in?

E|--------------------------------------------------|
B|--------------------------------------------------|
G|--------------------------------------------------|
D|---------------------2~~-----------------------2~-|
A|-----(3)/5-4~------2----------(3)/5-4~~-----------|
E|-0-0---------4p0-4------0-0--------------0-0-4----|
{..pm.} {.pm.}
Here I come! huh......

CHOURSE
B⁄A#⁄A B A# A B A~
E|------------------------------------------------------------------|
B|------------------------------------------------------------------|
G|------------------------------------------------------------------|
D|------------------------------------------------------------------|
A|--------9⁄8⁄7------------9--8--7------------9⁄8⁄7------------9-7~-|
E|0---0-0-7⁄6⁄5---0---0-0--7--6--5---0----0-0-7⁄6⁄5---0---0-0--7-5~-|
{pm} {pm}
I'm gone, gone just like the past

B⁄A#⁄A B A# A B A~
E|------------------------------------------------------------------|
B|------------------------------------------------------------------|
G|------------------------------------------------------------------|
D|------------------------------------------------------------------|
A|--------9⁄8⁄7------------9--8--7------------9⁄8⁄7------------9-7~-|
E|0---0-0-7⁄6⁄5---0---0-0--7--6--5---0----0-0-7⁄6⁄5---0---0-0--7-5~-|
{pm} {pm} {pm}
Because I'm gone and you won't be the last

B⁄A#⁄A B A# A B A~
E|------------------------------------------------------------------|
B|------------------------------------------------------------------|
G|------------------------------------------------------------------|
D|------------------------------------------------------------------|
A|--------9⁄8⁄7------------9--8--7------------9⁄8⁄7------------9-7~-|
E|0---0-0-7⁄6⁄5---0---0-0--7--6--5---0----0-0-7⁄6⁄5---0---0-0--7-5~-|
{pm} {pm} {pm}
'Cause I'll be strong Now, can you hear my voice?

B⁄A#⁄A B A# A B A~
E|------------------------------------------------------------------|
B|------------------------------------------------------------------|
G|------------------------------------------------------------------|
D|------------------------------------------------------------------|
A|--------9⁄8⁄7------------9--8--7------------9⁄8⁄7------------9-7~-|
E|0---0-0-7⁄6⁄5---0---0-0--7--6--5---0----0-0-7⁄6⁄5---0---0-0--7-5~-|
{pm} {pm} {pm}
Because I'm gone!

BRIDGE

F# D A D B E E E E F# D A D B E E E E
E|-------------------------------------------------------------------------|
B|-------------------------------------------------------------------------|
G|-------------------------------------------------------------------------|
D|11-----7------------------9--9-9-9---111-----7------------------9--9-9-9-|
A|9------5----7-------12--9-7--7-7-7---99------5----7-------12--9-7--7-7-7-|
E|------------5-------10--7-------------------------5-------10--7----------|
{Guitar and Keyboard}
Still it breaks me down inside, 'cause I want truth of our life

F# D A D B E# D
E|----------------------------------------------------|
B|----------------------------------------------------|
G|----------------------------------------------------|
D|11-----7-------------------15-----------------------|
A|9------5----7-------12--9--15--------------------12-|
E|------------5-------10--7--13--------------------10-|
{Guitar and Keyboard}
And I am the stronger man, nothing will change me at all. You Lie!!

B⁄A#⁄A B A# A B A~
E|------------------------------------------------------------------|
B|------------------------------------------------------------------|
G|------------------------------------------------------------------|
D|------------------------------------------------------------------|
A|--------9⁄8⁄7------------9--8--7------------9⁄8⁄7------------9-7~-|
E|0---0-0-7⁄6⁄5---0---0-0--7--6--5---0----0-0-7⁄6⁄5---0---0-0--7-5~-|
{pm} {pm} {pm}

B⁄A#⁄A B A# A B A~
E|------------------------------------------------------------------|
B|------------------------------------------------------------------|
G|------------------------------------------------------------------|
D|------------------------------------------------------------------|
A|--------9⁄8⁄7------------9--8--7------------9⁄8⁄7------------9-7~-|
E|0---0-0-7⁄6⁄5---0---0-0--7--6--5---0----0-0-7⁄6⁄5---0---0-0--7-5~-|
{pm} {pm} {pm}

LEAD

E|-----12-13-12~--12-13-15--15p13p12--------------------------------------|
B|12-15-----------------------------15----------12h13h15p12---------------|
G|-------------------------------------114~~~~~------------14p12⁄10-------|
D|-----------------------------------------------------------------12~~~~-|
A|------------------------------------------------------------------------|
E|------------------------------------------------------------------------|
{Guitar 1}

D D C A D D C F
E|-----------------------------------------------------------|
B|-----------------------------------------------------------|
G|-----------------------------------------------------------|
D|----------------------------------------------------10-----|
A|12---12-------8----10--7----12---12--------8-----10--8-----|
E|10---10--8/10--10---8--5----10---10--88/10--10---8-----5/8-|
{Guitar 2}
My love!

E|-----------------------------------------------------------------------------|
B|-----------------------------------------------------------------------------|
G|12^(14s`12)-9-10-12~~--9-10p9----------------------------------------10------|
D|-----------------------------10~~--12~~-10--10~-----10h12/14-12~--------12~~-|
A|------------------------------------------12---10h12------------10h12--------|
E|-----------------------------------------------------------------------------|

D D C A D D C F
E|-----------------------------------------------------------|
B|-----------------------------------------------------------|
G|-----------------------------------------------------------|
D|----------------------------------------------------10-----|
A|12---12-------8----10--7----12---12--------8-----10--8-----|
E|10---10--8/10--10---8--5----10---10--88/10--10---8-----5/8-|
{Guitar 2}
Just like a prayre

E|--------------------------15^(17~~s`155)-15⁄(12)-12--------------------|
B|------15--15~~------12-15--------------------------15-12-15~~~~~~⁄(10)-|
G|12-14---14-----12/14---------------------------------------------------|
D|-----------------------------------------------------------------------|
A|-----------------------------------------------------------------------|
E|-----------------------------------------------------------------------|
Oh, darling

D D C A D D C F
E|-----------------------------------------------------------|
B|-----------------------------------------------------------|
G|-----------------------------------------------------------|
D|----------------------------------------------------10-----|
A|12---12-------8----10--7----12---12--------8-----10--8-----|
E|10---10--8/10--10---8--5----10---10--88/10--10---8-----5/8-|
{Guitar 2}

E|--------------------------------------------------|
B|--------------------------------------------------|
G|--------------------------------------------------|
D|---------------------2~~-----------------------2~-|
A|-----(3)/5-4~------2----------(3)/5-4~~-----------|
E|-0-0---------4p0-4------0-0--------------0-0-4----|
{..pm.} {.pm.}

E|--------------------------------------------------|
B|--------------------------------------------------|
G|--------------------------------------------------|
D|---------------------2~~-----------------------2~-|
A|-----(3)/5-4~------2----------(3)/5-4~~-----------|
E|-0-0---------4p0-4------0-0--------------0-0-4----|
{..pm.} {.pm.}
Yeah, In a

E|--------------------------------------------------|
B|--------------------------------------------------|
G|--------------------------------------------------|
D|---------------------2~~-----------------------2~-|
A|-----(3)/5-4~------2----------(3)/5-4~~-----------|
E|-0-0---------4p0-4------0-0--------------0-0-4----|
{..pm.} {.pm.}
dream I had a final vision, How come you just wanna be my friend?

E|--------------------------------------------------|
B|--------------------------------------------------|
G|--------------------------------------------------|
D|---------------------2~~-----------------------2~-|
A|-----(3)/5-4~------2----------(3)/5-4~~-----------|
E|-0-0---------4p0-4------0-0--------------0-0-4----|
{..pm.} {.pm.}
How come?

CHOURSE
B⁄A#⁄A B A# A B A~
E|------------------------------------------------------------------|
B|------------------------------------------------------------------|
G|------------------------------------------------------------------|
D|------------------------------------------------------------------|
A|--------9⁄8⁄7------------9--8--7------------9⁄8⁄7------------9-7~-|
E|0---0-0-7⁄6⁄5---0---0-0--7--6--5---0----0-0-7⁄6⁄5---0---0-0--7-5~-|
{pm} {pm}
I'm gone, gone just like the past

B⁄A#⁄A B A# A B A~
E|------------------------------------------------------------------|
B|------------------------------------------------------------------|
G|------------------------------------------------------------------|
D|------------------------------------------------------------------|
A|--------9⁄8⁄7------------9--8--7------------9⁄8⁄7------------9-7~-|
E|0---0-0-7⁄6⁄5---0---0-0--7--6--5---0----0-0-7⁄6⁄5---0---0-0--7-5~-|
{pm} {pm} {pm}
Because I'm gone and you won't be the last

B⁄A#⁄A B A# A B A~
E|------------------------------------------------------------------|
B|------------------------------------------------------------------|
G|------------------------------------------------------------------|
D|------------------------------------------------------------------|
A|--------9⁄8⁄7------------9--8--7------------9⁄8⁄7------------9-7~-|
E|0---0-0-7⁄6⁄5---0---0-0--7--6--5---0----0-0-7⁄6⁄5---0---0-0--7-5~-|
{pm} {pm} {pm}
'Cause I'll be strong Uh, can you hear my voice?

B⁄A#⁄A B A# A B A~
E|------------------------------------------------------------------|
B|------------------------------------------------------------------|
G|------------------------------------------------------------------|
D|------------------------------------------------------------------|
A|--------9⁄8⁄7------------9--8--7------------9⁄8⁄7------------9-7~-|
E|0---0-0-7⁄6⁄5---0---0-0--7--6--5---0----0-0-7⁄6⁄5---0---0-0--7-5~-|
{pm} {pm} {pm}
Because I'm gone! Heh!

B⁄A#⁄A B A# A B A~
E|------------------------------------------------------------------|
B|------------------------------------------------------------------|
G|------------------------------------------------------------------|
D|------------------------------------------------------------------|
A|--------9⁄8⁄7------------9--8--7------------9⁄8⁄7------------9-7~-|
E|0---0-0-7⁄6⁄5---0---0-0--7--6--5---0----0-0-7⁄6⁄5---0---0-0--7-5~-|
{pm} {pm}
I'm gone, gone just like the past

B⁄A#⁄A B A# A B A~
E|------------------------------------------------------------------|
B|------------------------------------------------------------------|
G|------------------------------------------------------------------|
D|------------------------------------------------------------------|
A|--------9⁄8⁄7------------9--8--7------------9⁄8⁄7------------9-7~-|
E|0---0-0-7⁄6⁄5---0---0-0--7--6--5---0----0-0-7⁄6⁄5---0---0-0--7-5~-|
{pm} {pm} {pm}
Because I'm gone and you won't be the last

B⁄A#⁄A B A# A B A~
E|------------------------------------------------------------------|
B|------------------------------------------------------------------|
G|------------------------------------------------------------------|
D|------------------------------------------------------------------|
A|--------9⁄8⁄7------------9--8--7------------9⁄8⁄7------------9-7~-|
E|0---0-0-7⁄6⁄5---0---0-0--7--6--5---0----0-0-7⁄6⁄5---0---0-0--7-5~-|
{pm} {pm} {pm}
'Cause I'll be strong Now, can you hear my voice?

B⁄A#⁄A B A# A B A~
E|------------------------------------------------------------------|
B|------------------------------------------------------------------|
G|------------------------------------------------------------------|
D|------------------------------------------------------------------|
A|--------9⁄8⁄7------------9--8--7------------9⁄8⁄7------------9-7~-|
E|0---0-0-7⁄6⁄5---0---0-0--7--6--5---0----0-0-7⁄6⁄5---0---0-0--7-5~-|
{pm} {pm} {pm}
Because I'm gone! Hey, hey!!

B⁄A#⁄A B A# A B A~
E|------------------------------------------------------------------|
B|------------------------------------------------------------------|
G|------------------------------------------------------------------|
D|------------------------------------------------------------------|
A|--------9⁄8⁄7------------9--8--7------------9⁄8⁄7------------9-7~-|
E|0---0-0-7⁄6⁄5---0---0-0--7--6--5---0----0-0-7⁄6⁄5---0---0-0--7-5~-|
{pm} {pm} {pm}

B⁄A#⁄A B A# A B A~
E|------------------------------------------------------------------|
B|------------------------------------------------------------------|
G|------------------------------------------------------------------|
D|------------------------------------------------------------------|
A|--------9⁄8⁄7------------9--8--7------------9⁄8⁄7------------9-7~-|
E|0---0-0-7⁄6⁄5---0---0-0--7--6--5---0----0-0-7⁄6⁄5---0---0-0--7-5~-|
{pm} {pm} {pm}

Тональность:

Это должно быть в ТОП-листе! - Топ-лист композиций



Назад
Рекомендуем посмотреть другие песни исполнителя «Black Sabbath»:

  • Комменты Fb ()
  • Комменты ВК



Добавить в Избранное Браузера
Сохранить здесь Очистить


x

0


+
-

+
-

-

Авторизация





Зарегистрироваться

M

Дата и время

  • 11:47:19
     

Социальные ссылки


Наши приложения

  • Muzbank App Play Market
  • Muzbank Amazon App
  • Muzbank Bitcoin13igjuWJj2R4cHiyZqP7Q3ggVvfXE9j82Q