MUZBANK


МУЗЫКАЛЬНО-ИНФОРМАЦИОННЫЙ БАНК





BBlack Sabbath • Into The Void (btab) (аккорды и текст - chords & lyrics)


421

Print

Видео «Into The Void (btab) (Black Sabbath)»

Видео клипы к песне подбираются автоматически сайтом youtube. Возможны некоторые несоответствия клипов песне.

↑ Спрятать рекламу ↑





 
Rocket engines burning fuel so fast
Up into the night sky they blast
Through the universe the engines whine
Could it be the end of man and time
Back on earth the flame of life burns low
Everywhere is misery and woe
Pollution kills the air, the land and sea
Man prepares to meet his destiny, yeah
Rocket engines burning fuel so fast
Up into the black sky so vast
Burning metal through the atmosphere
Earth remains in worry, hate and fear
With the hateful battles raging on
rockets flying to the glowing sun
Through the empires of eternal void
Freedom from the final suicide

Freedom fighters sent out to the sun
escape from brainwashed minds and pollution.
Leave the earth to all its sin and hate
find another world where freedom waits.

Past the stars in fields of ancient void
Through the shields of darkness where they find
Love upon a land a world unknown
where the sons of freedom make their home
Leave the earth to Satan and his slaves
leave them to their future in their grave
Make a home where love is there to stay
Peace and Happiness in everyday

BASS

-----------------9----9---9---9---9-------------
 2----1----0--8-7---7----7---7---7---75---------
 |-----0-1-2----2----2--------------------------
 |-0-3------------------------------------------
 
 
 -9----8----7------9-----9---9---9---9----------------------
 |------7-8-9----9----9---8--7---7-----7---7---7---75-------
 |-7-10------------------------------------------------------
 ------------------------------------------------------------
 
 
 ------------------------------------------------------------
 --------0-97-5~--------------0-9-5-------------------------
 |-7-7-7-7-7--5--5-5----------7-7-7-7-7--5-------7-5---------
 |---0-0-0-0--------------------0-0-0-0--------------7-------
 
 
 ------------------------------------------------------------
 --------0-97-5---------------------------------------------
 |-7-7-7-7-7--5--5-5-----------------------------------------
 |---0-0-0-0------------------8-8-8-8-8-10-7-----------------
 
 
 ------------------------------------------------------------
 ------------------------------------------7^----------------
 |-7--7-7-5h7-5-5h7-5h7-7-5~---5h7-7-7-5h7-5-5h7-5h7-7-------
 ------------------------------------------------------------
 
 
 |-9--8~~-7----
 9--8--7-----
 ------------
 ------------
 
 double time
 ------------------------------------------------
 ---8--8-7---------------------8--8-7------------
 |-7-7-10(10)p7--------10^-7--7-7-10(10)p7--------10^-7------
 ------------------------------------------------
                                                     end 2x time
 
 ------------------------------------------------
 ----------5---------------------------5---------
 |--7-6-5-------5--6-7---7~~----7-6-5-------5--6-7---7~~-----
 |--------7~~-------------------------7~~--------------------


GUITAR

[Intro]

e:-------------------------------------------------------------------|
B:-------------------------------------------------------------------|
G:-------------------------------------------------------------------|
D:------------------2-----1---0--------------------------------------|
A:--x\--------0-1-2-----2---2---1~----0h1p0----0-(0)h1p0----0h1p0----|
E:--x\----0-3-------------------------------3------------3--------3--|
        PM-----------| PM  PM              PM           PM       PM

e:-------------------------------------------------------------------|
B:-------------------------------------------------------------------|
G:-------------------------------------------------------------------|
D:----------2--------------------------------------------------------|
A:--0---1-2----2p0---------------------------------------------------|
E:-----------------3-------------------------------------------------|
                   PM

[Riff 1]
      E         D5
e:-------------------------------------------------------------------|
B:-------------------------------------------------------------------|
G:----1-1-1-1---2---2-2-----------------1-1-1-1--2-------------------|
D:----2-2-2-2---0---0-0-----------------2-2-2-2--0----------------2--|
A:----2-2-2-2---0---0-0---0-7-6-5~~-----2-2-2-2--0-0h2-----0--1-2----|
E:-0--0-0-0-0------------------------0--0-0-0-0--------3-------------|
                                    PM                PM
                                      C5             D5  B5
e:------------------2------------------------------------------------|
B:------------------3------------------------------------------------|
G:-----1-1-1-1---2--2------------------------------------------------|
D:-----2-2-2-2---0--0------------------------------------------------|
A:-----2-2-2-2---0------0--7-6-5~/----10-10-10-10-10-12--9-----------|
E:--0--0-0-0-0-------------------------8--8--8--8--8-10--7-----7\----|

[Riff 2a]                               [Riff 2b]

e:-----------------------------------|-------------------------------|
B:-----------------------------------|-------------------------------|
G:-----------------------------------|-------------------------------|
D:-----------------------------------|-------------------------------|
A:--5h7----------5h7----------5~~~~--|--5h7----------5h7-------------|
E:--0---0-0-0-0--0---0-0-0-0---------|--0---0-0-0-0--0---0-0-5~b6r5--|

[Fill 1]

e:-------------------------------------------------------------------|
B:-------------------------------------------------------------------|
G:-------------------------------------------------------------------|
D:-------------------------------------------------------------------|
A:--5h7----------5h7-------------------------------------------------|
E:--0---0-0-0-0--0---0-0-5~b6r5--/12\--------------------------------|

[Riff 3]                         [Riff 4]

e:----------------------------|--------------------------------------|
B:----------------------------|--------------------------------------|
G:----------------------------|--------------------------------------|
D:--0h2~--1~--0~--------------|--------------------------------------|
A:---------------2~--1~--0~---|--------------------------------------|
E:----------------------------|--0---3--(3)p0--6----6-5--3--0--------|

[Riff 5]

e:-------------------------------------------------------------------|
B:-------------------------------------------------------------------|
G:-------------------------------------------------------------------|
D:----------------------5--------------------------------------------|
A:--7-6-5--------5-6-7-----7~----------------------------------------|
E:---------7~~-------------------------------------------------------|
 

Тональность:

Это должно быть в ТОП-листе! - Топ-лист композиций



Назад
Рекомендуем посмотреть другие песни исполнителя «Black Sabbath»:

  • Комменты Fb ()
  • Комменты ВК



Добавить в Избранное Браузера
Сохранить здесь Очистить


x

0


+
-

+
-

-

Авторизация





Зарегистрироваться

M

Дата и время

  • 20:47:20
     

Социальные ссылки


Наши приложения

  • Muzbank App Play Market
  • Muzbank Amazon App