MUZBANK


МУЗЫКАЛЬНО-ИНФОРМАЦИОННЫЙ БАНК





BBlack Sabbath • N.I.B. (аккорды и текст - chords & lyrics)


484

Print

Видео «N.I.B. (Black Sabbath)»

Видео клипы к песне подбираются автоматически сайтом youtube. Возможны некоторые несоответствия клипов песне.

↑ Спрятать рекламу ↑






Verse 1:
E|------------------------------------------------|
B|------------------------------------------------|
G|------------------------------------14fb-12v~~~-|
D|------------------------------------------------|
A|-14-14--12-14--15-14--14-14--12-12--------------|
E|-12-12--10-12--17-16--12-12--10-10--------------|

E|-------------------------------------------------------------|
B|-------------------------------------------------------------|
G|-------------------------------------------------------------|
D|-------------------------------------------------------------|
A|-14-14--12-12--15-14--14-14--12-12-------------14p12h14p12h4-|
E|-12-12--10-10--17-16--12-12--10-10---------/12---------------|

E|--------------------------------------12-12/-|
B|--------------------------------------12-12/-|
G|--------------------------------------12-12/-|
D|---------------------------------------------|
A|-14-14--12-12--15-14--14-14--12-12-----------|
E|-12-12--10-10--17-16--12-12--10-10-----------|

E|-------------------------------------------------------------|
B|-------------------------------------------------------------|
G|-------------------------------------------------------------|
D|-------------------------------------------------------------|
A|-14-14--12-12--15-14--14-14--12-12-------------14p12h14p12h4-|
E|-12-12--10-10--17-16--12-12--10-10---------/12---------------|

E|--------------------------------------12-12/-|
B|--------------------------------------12-12/-|
G|--------------------------------------12-12/-|
D|---------------------------------------------|
A|-14-14--12-12--15-14--14-14--12-12-----------|
E|-12-12--10-10--17-16--12-12--10-10-----------|

E|------------------------------------------------------------|
B|------------------------------------------------------------|
G|------------------------------------------------------------|
D|------------------------------------------------------------|
A|-14-14--12-12--15-14--14-14--12-12------------14p12h14p12h4-|
E|-12-12--10-10--17-16--12-12--10-10---------/12--------------|

Bridge: (*hold 14hb, then push to fb)
E|-------------------------------------------|
B|-------------------------------------------|
G|-------------------------------------------|
D|-------------------------------------------|
A|-------10-12-12p10-------------10-12-12p10-|
E|-10h12-------------12-12-10h12-------------|

E|-----------------------------------------|
B|-------------------------------12---12---|
G|-------------------------------14hb-14fb-|
D|-----------------------------------------|
A|-------------10-12-12p10-----------------|
E|-12-12-10h12-------------12-12-----------|

Repeat Verse, then

Bridge 2:
E|--------------------------------------------------------------------------|
B|--------------------------------------------------------------------------|
G|--------------------------------------------------------------------------|
D|--------------------------------------------------------------------------|
A|-14--14/12--12/10--10/9--9/14--14/12--12/10--10/9--9/10--10/9--9/10--10/9-|
E|-12--12/10--10/-8---8/7--7/12--12/10--10/-8---8/7--7/-8---8/7--7/-8---8/7-|

Repeat Verse, then Bridge 1, then

Solo 1:
Which since I didn't tab out myself..I cheated and looked it up out of
sheer laziness. Really this is a repost of factory81's solo, as well as the
last solo, with some improvements and such. So props to factory81

E|--------------------------------------------------------------------|
B|--------------------------------------------------------------------|
G|----------------------------4-4-4/7-7--7h9-9---9hb-9hb--9fb-7h9p7-7-|
D|-5-4h5p4/2--5-4h5p4/2-4h5-7-----------------------------------------|
A|--------------------------------------------------------------------|
E|--------------------------------------------------------------------|

E|-----------------------------------------------|
B|------------8-10p8--8-10-10bp8-10---10bp8-10-8-|
G|-9-9-9-8/9--------9---------------9------------|
D|-----------------------------------------------|
A|-----------------------------------------------|
E|-----------------------------------------------|

E|---------------------------------------|
B|-10bp8-10-8-10b-10b----1-10p8h10-8/15⁄-|
G|---------------------------------------|
D|---------------------------------------|
A|---------------------------------------|
E|---------------------------------------|

E|---------------------------------------------------------12-12-----------|
B|------------------------------------------------------12------15hb-15-12-|
G|-------------------4-4-4/7-7/9-9-9/12-12--12h14-14hb---------------------|
D|-5-4h5p4/2--4h5h7--------------------------------------------------------|
A|-------------------------------------------------------------------------|
E|-------------------------------------------------------------------------|

E|-15p12--15p12--15p12--15p12-15fb--15-121512----12------------12---|
B|------12-----12-----12----------------------15----15p12----12--15-|
G|-------------------------------------------------------14hb-------|
D|------------------------------------------------------------------|
A|------------------------------------------------------------------|
E|------------------------------------------------------------------|

E|------12-------------------------------------------------|
B|-15hb---15p12--12-15-------------------------------------|
G|-------------15-----14hb-14hb---14-12h14p12----12-14bp12-|
D|--------------------------------------------14-----------|
A|---------------------------------------------------------|
E|---------------------------------------------------------|

Verse, Bridge 2, Verse, Bridge 1

Outro Solo:
E|----------------------------------------------------------------------|
B|----------------------------------------------------------------------|
G|-------------------------------4-4-4/7-7--7h9-9--9hb-9hb-9fb-7h9p7--7-|
D|-5-4h5p4/2---5-4h5p4/2-4h5-7------------------------------------------|
A|----------------------------------------------------------------------|
E|----------------------------------------------------------------------|

/--this is an overdub--⁄
/recording of two guitars⁄
/but can be played this way⁄
E|-----------------------------10fb-----------------------------|
B|-/8-8-8-/8-8-8-/8-8-8-/8-8-8--------10hb-8--10p8---8-10-10bp8-|
G|-/9-9-9-/9-9-9-/9-9-9-/9-9-9---------------------9------------|
D|--------------------------------------------------------------|
A|--------------------------------------------------------------|
E|--------------------------------------------------------------|

E|-------------------------------------12----------15hb-15-15p12------|
B|-10---8-10-10bp8--10p8h10-8-------12-----15fb-12---------------15hb-|
G|----9------------------------14hb-----------------------------------|
D|--------------------------------------------------------------------|
A|--------------------------------------------------------------------|
E|--------------------------------------------------------------------|

E|---12---------12--------12-------12---------------------------------------|
B|-15--15-12--12--15-15hb---15-12----15--15hb--12h14p12------12-------------|
G|----------14-------------------14---------------------14hb----14-12-14p12-|
D|--------------------------------------------------------------------------|
A|--------------------------------------------------------------------------|
E|--------------------------------------------------------------------------|

E|-------------12--------------------|
B|----------12--------------------12-|
G|---12-14hb------14hb-14hb-14fb-----|
D|-14--------------------------------|
A|-----------------------------------|
E|-----------------------------------|

E|-15p12----15p12----|
B|-------12-------12-|
G|-------------------| x10
D|-------------------|
A|-------------------|
E|-------------------|

E|-15hb--15--12h15p12------------------------------|
B|---------------------15-15p12----12-15bp12----12-|
G|------------------------------14-----------14----|
D|-------------------------------------------------|
A|-------------------------------------------------|
E|-------------------------------------------------|

E|--------------------------------------------------|
B|--------------------------------------------------|
G|-9--------12-14-b14p12-14p12-12-12⁄9-7h9--7-------|
D|-9--12-14-----------------------------------9-----|
A|-7--------------------------------------------7⁄6-|
E|--------------------------------------------------|

Тональность:

Это должно быть в ТОП-листе! - Топ-лист композиций



Назад
Рекомендуем посмотреть другие песни исполнителя «Black Sabbath»:

  • Комменты Fb ()
  • Комменты ВК



Добавить в Избранное Браузера
Сохранить здесь Очистить


x

0


+
-

+
-

-

Авторизация





Зарегистрироваться

M

Дата и время

  • 19:11:56
     

Социальные ссылки


Наши приложения

  • Muzbank App Play Market
  • Muzbank Amazon App