MUZBANK


МУЗЫКАЛЬНО-ИНФОРМАЦИОННЫЙ БАНК





BBlack Sabbath • Of The Southern Cross (аккорды и текст - chords & lyrics)


350

Print

Видео «Of The Southern Cross (Black Sabbath)»

Видео клипы к песне подбираются автоматически сайтом youtube. Возможны некоторые несоответствия клипов песне.

↑ Спрятать рекламу ↑





|------------0-----2-----3-------|-----------0-----2-----5---------
|--------------0-----0-----0-----|-------------0-----0-----0-------
|----------0-----0-----0-----0---|---------0-----0-----0-----0-----
|--------2---------------------2-|-------2---------------------2---
|--------------------------------|---------------------------------
|--3-2-0-------------------------|-3-2-0---------------------------

|-7----5--10--7⁄---2-2--|------------------
|-----------------------|-7-810-7-5-7---5--
|-9----7--11--9⁄---4-4--|-4-5-7-4-----7----
|-----------------------|---------5-7-4-5--
|-----------------------|------------------
|-----------------------|------------------

|------------------------
|------------------------
|------------------------
|--7-5-4-----------9-----
|--------5---5-5/7---7---
|----------7-------------


|-----------0---0-----0--------------
|-------1-3-------1-----1------------
|-----2-------------2-----2----------
|---2---------3----------------------
|-0----------------------------------
|------------------------------------


|------------------------------------------------------------------
|---------------------------------|--------------------------------
|------9---12-----11-12--7-9--9---|-------9---14---11--7-9---------
|------9---12-----11-12--7-9--9---|-------9---14---11--7-9---------
|------7---10------9-10--5-7--7---|-------7---12----9--5-7---------
|--0-0----------------------------|---0-0--------------------------

Fill 1: Fill 2:
|------------||------------------------
|------------||------------------------
|-7--7--/9---||------------------------
|-7--7--/9---||------------------------
|-5--5--/7---||-----5-----7-----7------
|------------||-5h7---5h7---5h7-0------


|----------------------------------------------------------
|----------------------------------------------------------
|----------------------------------------------------------
|--12--11--9---7---9---------------------------------------
|--10---9--7---5---7---------------------------------------
|----------------------------------------------------------

|-------------------------|---------------------|-----------------
|-------------------------|---------------------|-----------------
|-2-----------------------|-2-------------------|-----------------
|-2---------------------5-|-2-------------------|-14--12-12--10---
|-0---------------3---5-3-|-0----------3---3-5--|-12--10-10---8---
|-------3~---2~---1---3---|----3~--2~--1---1-3--|-----------------

Тональность:

Это должно быть в ТОП-листе! - Топ-лист композиций



Назад
Рекомендуем посмотреть другие песни исполнителя «Black Sabbath»:

  • Комменты Fb ()
  • Комменты ВК



Добавить в Избранное Браузера
Сохранить здесь Очистить


x

0


+
-

+
-

-

Авторизация





Зарегистрироваться

M

Дата и время

  • 04:28:54
     

Социальные ссылки


Наши приложения

  • Muzbank App Play Market
  • Muzbank Amazon App