MUZBANK


МУЗЫКАЛЬНО-ИНФОРМАЦИОННЫЙ БАНК





BBlack Sabbath • Orchid (аккорды и текст - chords & lyrics)


420

Print

Видео «Orchid (Black Sabbath)»

Видео клипы к песне подбираются автоматически сайтом youtube. Возможны некоторые несоответствия клипов песне.

↑ Спрятать рекламу ↑






Intro: t + i
t m i t m i t m i t m i
-------------10--8--10--5--5--5--5--5-5--|----0-----0-----0-----0----------|
---6--8--10------------------------------|------1-----1-----1-----1--------|
-----------------------------------------|----------------------------0-/--|
-------------8---7--8---3--3--3--3--3-3--|-----------------------------/-0-|
---5--7--8-------------------------------|--3-----3-----3-----3------------|
-----------------------------------------|---------------------------------|

t m i t m i t m i t m i t m i t m i t m i t m i
|----1-----1-----1-----1---------|----1-----1-----1-----1-----------|
|------3-----3-----3-----3-------|------0-----0-----0-----0---------|
|--------------------------0-/---|----------------------------0-/---| ⁄/
|--0-----0-----0-----0------/-0--|-----------------------------/-0--| /⁄
|--------------------------------|----------------------------------|
|--------------------------------|--3-----3-----3-----3-------------|

t m i t m i t m i t m i t m i t m i t m i t m i t m i t m i t m i t m i
|---5-----5-----5-----5-----5-----8-----7-----5-----0-----0-----0-----0--------|
|-----------------------------------------------------1-----1-----1-----1------|
|-----5-----5-----5-----5-----5-----9-----4-----5-------------------------0-/--|
|-3-----3-----3-----3-----3-----7-----5-----3------------------------------/-0-|
|-------------------------------------------------3-----3-----3-----3----------|
|------------------------------------------------------------------------------|

t m i t m i t m i t m i t m i t m i t m i t m i t m i t m i t m i t m i
|----3-----3-----3-----3-----3-----3-----1-----1-----1-----1-----1-----1-----
|------3-----3-----3-----3-----3-----3-----3-----3-----3-----3-----3-----3---
|--0-----0-----0-----0-----0-----0------------------------------------------
|--------------------------------------3-----2-----3-----3-----3-----3------
|---------------------------------------------------------------------------
|---------------------------------------------------------------------------

Тональность:

Это должно быть в ТОП-листе! - Топ-лист композиций



Назад
Рекомендуем посмотреть другие песни исполнителя «Black Sabbath»:

  • Комменты Fb ()
  • Комменты ВК



Добавить в Избранное Браузера
Сохранить здесь Очистить


x

0


+
-

+
-

-

Авторизация





Зарегистрироваться

M

Дата и время

  • 11:08:39
     

Социальные ссылки


Наши приложения

  • Muzbank App Play Market
  • Muzbank Amazon App