MUZBANK


МУЗЫКАЛЬНО-ИНФОРМАЦИОННЫЙ БАНК





BBlack Sabbath • Sabbra Cadabra (аккорды и текст - chords & lyrics)


322

Print

Видео «Sabbra Cadabra (Black Sabbath)»

Видео клипы к песне подбираются автоматически сайтом youtube. Возможны некоторые несоответствия клипов песне.

↑ Спрятать рекламу ↑






Tune down 1 1/2 steps (C#)

|--------3---------------3--------------3----------------3----------|
|----3h5---5-5-5-----3h5---5-5-5----3h5--------------3h5------------|
|--4---------------4--------------4-------432------4-------432------|
|---------------------------------------------2-2---------------2-2-|
|-------------------------------------------------------------------|
|-------------------------------------------------------------------|

Solo:
|----------------------------------------------------------|
|------------------------------------------8~--------------|
|------------------------------9-9---9-7-9----9-7----------|
|-7^~~~~---9⁄7--5-7-5-7-5--7/9-----------------------------|
|----------------------------------------------------------|
|----------------------------------------------------------|
| |
|----------------------------------------------------------|
|--------------------------------------8^------------------|
|------------------------------9-9-9-9-------9-7-----------|
|-7^~~~~---9⁄7--5-7-5-7-5--7/9-----------------------------|
|----------------------------------------------------------|
|----------------------------------------------------------|

|----------------------------------------------------------
|---------------------------------------------8------------
|-----7-------------------------------9-9-------9----------
|-7/9---9⁄7--7-5-7^~~~~--7-5-7-5--7h9-----7h9--------------
|----------------------------------------------------------
|----------------------------------------------------------

|----------------------
|----------------------
|----------------------
|-9⁄7-5-7-5-7~~-5------
|----------------------
|----------------------

varies:
|----------------------------------------|
|----------------------------------------|
|--7--9--9--7--9--9---7-6-7-6-7-6--7-9-9-|
|--7--9--9--7--9--9---7-6-7-6-7-6--7-9-9-|
|--5--7--7--5--7--7---5-4-5-4-5-4--5-7-7-|
|----------------------------------------|
| ||||||||||
|-----12-12-------12-12--10-9-10-9-10-9-----------|
|--15-15^15^---15-15^15^----------------12p10-----|
|---------------------------------------------9-9-|

"feel so happy sionce i met that girl..."
|----------------------------------------|
|----------------------------------------|
|--7--9--9--7--9--9---7-7-7-7-7-7--7-9-9-|
|--7--9--9--7--9--9---7-7-7-7-7-7--7-9-9-|
|--5--7--7--5--7--7---5-5-5-5-5-5--5-7-7-|
|----------------------------------------|


"some1 to love me..."
|---------------|---------------|
|---------------|---------------|
|---------------|---------------|
|-7----------7--|-9-------------|
|-7----------7--|-9-------------|
|-5----------5--|-7-------------|


"lonely lady..make love all nite long"
|---0-----3-----0-----3-----------|
|-----0-----0-----0-----0---------|
|---------------------------------|
|-2-----2-----2-----2-----2-0-1-2-|
|---------------------------------|
|---------------------------------|

"I dont want to leave you..."
repeat: "Anymore...no more"
|------------|------------|--------------------------------|
|------------|------------|--------------------------------|
|-5----------|-4----------|--------------------------------|
|-5----------|-4----------|-2--2-2---x-x-x-7-7-7--7-7⁄-----|
|-3----------|-2----------|-2--2-2---x-x-x-7-7-7--7-7⁄-----|
|------------|------------|-0--0-0---x-x-x-5-5-5--5-5⁄-----|



slide|---|
|------------------------------------------------|
|------------------------------------------------|
|------------7p5---7--5-------454-0---0-4-5⁄4----|
|----7-7p5-7-7p5---7--5-------454-0-5-0-4-5⁄4----|
|----7-7p5-7-----7------7-----------5------------|
|--0----------------------0-------------------0--|
this is the little thing at the end.

Тональность:

Это должно быть в ТОП-листе! - Топ-лист композиций



Назад
Рекомендуем посмотреть другие песни исполнителя «Black Sabbath»:

  • Комменты Fb ()
  • Комменты ВК



Добавить в Избранное Браузера
Сохранить здесь Очистить


x

0


+
-

+
-

-

Авторизация





Зарегистрироваться

M

Дата и время

  • 15:31:16
     

Социальные ссылки


Наши приложения

  • Muzbank App Play Market
  • Muzbank Amazon App