MUZBANK


МУЗЫКАЛЬНО-ИНФОРМАЦИОННЫЙ БАНК





BBlack Sabbath • Selling My Soul (аккорды и текст - chords & lyrics)


430

Print

Видео «Selling My Soul (Black Sabbath)»

Видео клипы к песне подбираются автоматически сайтом youtube. Возможны некоторые несоответствия клипов песне.

↑ Спрятать рекламу ↑






Main riff:

D--9--9--x-x---12/9--9---14--14----17/16-17/16---14/12---9--x--|
A--9--9--x-x---12/9--9---14--14----17/16-17/16---14/12---9--x--|
E--7--7--x-x---10/7--7---12--12----15/14-15/14---12/10---7--x--|
(repeat)

Man of madness, who lives in my head, keeping me awake at night he
sits on my bed...

this sounds extremely like the version on Reunion. I don't have
the little melody bit down yet, but I will have it soon.

the lead bit is pretty easy, a good lead guitarist can add some
harmonies and get it down pat. i've come up with this:

Lead:

pt.1
----------------------------------------------------------------
----------------------------------------------------------------
----------------------------------------------------------------
----7^^--x-x--9/7--5/7-7--x-x--12-12--15/14--15/14--12/10--7^^--
----------------------------------------------------------------
----------------------------------------------------------------

pt.2
--------------------------------------------------------15^15^--
-------------------------/9-9--8-7-6-5^5^5^----/12-12-----------
----------------------------------------------------------------
----------------------------------------------------------------
----------------------------------------------------------------
----------------------------------------------------------------

pt.3
---------12^--12^---------------------------------------------------
---------------------14--12--10--14--12---10---8--------------------
--------------------------------------------------9---7-------------
----------------------------------------------------------9---7--6-7
--------------------------------------------------------------------
--------------------------------------------------------------------

Тональность:

Это должно быть в ТОП-листе! - Топ-лист композиций



Назад
Рекомендуем посмотреть другие песни исполнителя «Black Sabbath»:

  • Комменты Fb ()
  • Комменты ВК



Добавить в Избранное Браузера
Сохранить здесь Очистить


x

0


+
-

+
-

-

Авторизация





Зарегистрироваться

M

Дата и время

  • 01:41:55
     

Социальные ссылки


Наши приложения

  • Muzbank App Play Market
  • Muzbank Amazon App