MUZBANK


МУЗЫКАЛЬНО-ИНФОРМАЦИОННЫЙ БАНК





BBlack Sabbath • Seventh Star (аккорды и текст - chords & lyrics)


497

Print

Видео «Seventh Star (Black Sabbath)»

Видео клипы к песне подбираются автоматически сайтом youtube. Возможны некоторые несоответствия клипов песне.

↑ Спрятать рекламу ↑






|------------------------------------------------------------
|------------------------------------------------------------
|---5-5---5-5-----2-2---------0-----0------------------------
|-0-----0-------0------0-2^p0----2^---3p2p0------------------
|-------------------------------------------3----------------
|------------------------------------------------------------

"hear the sound of"
|----------------------------------------------------------
|----------------------------------------------------------
|----------------------------------------------------------
|-12--------10--9------------------------------------------
|-10---------8--7-10---------------------------------------
|------------------8---------------------------------------

"the call of the 7th star.."
|----------------------------------------------------------
|----------------------------------------------------------
|-7--10⁄9--5--7-----7--9-10--9--5-7------------------------
|-7--10⁄9--5--7-----7--9-10--9--5-7-8--7-------------------
|-5---8⁄7--3--5-----5--7--8--7--3-5-8--7-------------------
|-----------------------------------6--5-------------------

Solo:
|----------------------------------------------------------
|----------------------------------------------------------
|-10p9h10h12-9h10p9-------9-10-12--------------------------
|-------------------12-------------------------------------
|---------------------------------12--10-8-10-10/12--------
|----------------------------------------------------------

|-------------13-------------12-^--------------------------
|------13-13^----13^-13p10----------13p10------------------
|-12^^--------------------12-------------12-10h12p10-9-----
|------------------------------------------------------12--
|----------------------------------------------------------
|----------------------------------------------------------

|----------------------------------------------------------
|----------------------------------------------------------
|-10-10----------------------------------------------------
|-------12p10--------10------------------------------------
|-------------12--10----12⁄10-8-10-8----8-10/12------------
|------------------------------------10--------------------

|----------------------------------------------------------
|----------------------------------------------------------
|-10^-10---------------------------------------------------
|--------12-10-12-10------------------------------------10-
|--------------------10-8-10h12p10p8-10h12p10p8-10h12p10---
|----------------------------------------------------------

|----------------------------------------------------------
|--------------------10-13^--13p10-------------------------
|---------10-10h12p10--------------12----------------------
|-10h12p10-------------------------------------------------
|----------------------------------------------------------
|----------------------------------------------------------end solo

|----------------------------------|-----------------------
|----------------------------------|-----------------------
|---5-----5⁄-------5----5⁄---4-4-4-|-----------------------
|---5-----5⁄-------5----5⁄---4-4-4-|-----------------------
|-0-----0------0-0----0------------|-----------------------
|----------------------------------|-----------------------
| |
|----------------------------------|-----------------------
|----------------------------------|-----------------------
|---4-5-7-7/9----------------------|-----------------------
|-7--------------------------------|-----------------------
|----------------------------------|-----------------------
|----------------------------------|-----------------------

|------------------------|---------------------------------
|------------------------|---------------------------------
|--6h7p6-------6h7p6-----|-6h7p6-----6h7p6-----------------
|--------8-7---------8-7-|-------8-7-------7-7^^^----------
|------------------------|---------------------------------
|------------------------|---------------------------------

|-------3--------------------------------------------------
|-----3---3------------------------------------------------
|---3-------3----------------------------------------------
|-5-----------5--(0)-3-2----(back to verse)----------------
|------------------------3---------------------------------
|----------------------------------------------------------

Тональность:

Это должно быть в ТОП-листе! - Топ-лист композиций



Назад
Рекомендуем посмотреть другие песни исполнителя «Black Sabbath»:

  • Комменты Fb ()
  • Комменты ВК



Добавить в Избранное Браузера
Сохранить здесь Очистить


x

0


+
-

+
-

-

Авторизация





Зарегистрироваться

M

Дата и время

  • 02:02:04
     

Социальные ссылки


Наши приложения

  • Muzbank App Play Market
  • Muzbank Amazon App