MUZBANK


МУЗЫКАЛЬНО-ИНФОРМАЦИОННЫЙ БАНК





BBlack Sabbath • She`S Gone (аккорды и текст - chords & lyrics)


1449

Print

Видео «She`S Gone (Black Sabbath)»

Видео клипы к песне подбираются автоматически сайтом youtube. Возможны некоторые несоответствия клипов песне.

↑ Спрятать рекламу ↑






E
E|-----0-------0---------0-------0-------|
B|----*-0-----*-0-------*-0-----*-0------|
G|---*---*---*---*-----*---*---*---*-----|
D|2-*-----2-*-----1/2-*-----2-*------1/2-|
A|-2-------2---------2-------2-----------|
E|---------------------------------------|

E|----0-------0---------0-----0-----0-----*0----|
B|---*-0-----*-0-------*-0---*-0---*-0---*--0---|
G|--*---*---*---*-----0---0-*---0-*---0-*----0--|
D|-*-----2-*-----2-0-*-----2-----2-----2------2-|
A|2-------2---------2---------------------------|
E|----------------------------------------------|
{vp in}
(Guitar 1 acoustic 6 string)

E|----0-----0-------0------------0----------0--------------0-|
B|---*-0---*-0-----*-0----------*-*--------*-*------------*--|
G|8-*---8-*---*-8-*---8----11--*---*--11--*---11-----11--*---|
D|-9-----9-----9-9-----9/12--12-----12--12------12-12--12----|
A|-----------------------------------------------------------|
E|-----------------------------------------------------------|

E|--------0-------0----------0--------|
B|-------*-0-----*-*--------*-0-------|
G|--12--*---12--*---*--12--*---12--12-|
D|14--14------14-----14--14------14---|
A|------------------------------------|
E|------------------------------------|

E|-----0-----------0---------0-------0-----0--|
B|----*-0---------*-0-------*-0-----*-0---*-0-|
G|---8---*-------8---*-----8---8---8---8-*----|
D|8-9----10-9-8-9----10-8-9-----9-9-----9-----|
A|--------------------------------------------|
E|--------------------------------------------|

E|----0-----0------0------0------0------0------0------0--|
B|---*-0---*-0----*-0----*-0----*-0----*-0----*-0----*-0-|
G|4-*---4-*----4-*----4-*----8-*----8-*----8-*----8-*----|
D|-5-----5------5------5------9------9------9------9-----|
A|-------------------------------------------------------|
E|-------------------------------------------------------|
I've been a long, long time a waitin' for you

E|----0-----0------0------0------0------0------0------0--|
B|---*-0---*-0----*-0----*-0----*-0----*-0----*-0----*-0-|
G|4-*---4-*----4-*----4-*----8-*----8-*----8-*----8-*----|
D|-5-----5------5------5------9------9------9------9-----|
A|-------------------------------------------------------|
E|-------------------------------------------------------|
I didn't want to see you go, oh no no.

E|-------0-------0---------0--------0--|
B|------*-0-----*-0-------*-0------*-0-|
G|11--11----11-*-----11--*----11--*----|
D|--12-------12--------12-------12-----|
A|-------------------------------------|
E|-------------------------------------|

E|--------0-------0-------0---------0-------0--|
B|-------*-0-----*-0-----*-0-------*-0-----*-0-|
G|---9--*----9--*----9--*---*--9--*----9--*----|
D|-11-11------11------11-----11-11------11-----|
A|---------------------------------------------|
E|---------------------------------------------|
And now it's hurting so much What can I do?

E|-----0------0-------0------0------0------0--|
B|----*-0----*-0-----*-0----*-0----*-0----*-0-|
G|8--*---8--*-----6-*----8-*----8-*----8-*----|
D|-10-----10-------8------9------9------9-----|
A|--------------------------------------------|
E|--------------------------------------------|
I wanted you to be my wife.

E|----0-----0------0------0------0------0------0------0--|
B|---*-0---*-0----*-0----*-0----*-0----*-0----*-0----*-0-|
G|4-*---4-*----4-*----4-*----8-*----8-*----8-*----8-*----|
D|-5-----5------5------5------9------9------9------9-----|
A|-------------------------------------------------------|
E|-------------------------------------------------------|
The days are passing slowly, since you've gone.

E|----0-----0------0------0------0------0------0------0--|
B|---*-0---*-0----*-0----*-0----*-0----*-0----*-0----*-0-|
G|4-*---4-*----4-*----4-*----8-*----8-*----8-*----8-*----|
D|-5-----5------5------5------9------9------9------9-----|
A|-------------------------------------------------------|
E|-------------------------------------------------------|
Your memories are all I have, yes I have.

E|-------0-------0---------0--------0--|
B|------*-0-----*-0-------*-0------*-0-|
G|11--11----11-*-----11--*----11--*----|
D|--12-------12--------12-------12-----|
A|-------------------------------------|
E|-------------------------------------|

E|--------0-------0-------0---------0-------0--|
B|-------*-0-----*-0-----*-0-------*-0-----*-0-|
G|---9--*----9--*----9--*---*--9--*----9--*----|
D|-11-11------11------11-----11-11------11-----|
A|---------------------------------------------|
E|---------------------------------------------|
I sit here waitin' but, you never show

E|-----0------0-------0------0------0------0--|
B|----*-0----*-0-----*-0----*-0----*-0----*-0-|
G|8--*---8--*-----6-*----8-*----8-*----8-*----|
D|-10-----10-------8------9------9------9-----|
A|--------------------------------------------|
E|--------------------------------------------|
Without you I can't carry on, ohh my baby.

E|--------------------------------------------|
B|--------------------8-------10---/--12~~~~~-|
G|-------7-----9------------------------------|
D|-9------------------------------------------|
A|--------------------------------------------|
E|--------------------------------------------|
(Keyboard transcribed for Guitar {Guitar 1})

E|------0----------------0----------------0----------------0-----------|
B|-----*-0--------------*-0--------------*-0--------------*-0----------|
G|----*---*------------*---*------------*---*------------*---*---------|
D|---2-----2--2--2----2-----2--2--2----2-----2--2--2----2-----2--2--2--|
A|--2--------2--2-*--2--------2--2-*--2--------2--2-*--2--------2--2-*-|
E|-0---------------0-----------------0----------------0----------------|
(Guitar 2)

E|------------------------------------------|
B|------------------------------------------|
G|--------------------------14--------16~~~-|
D|--------14----16----17--------------------|
A|14----------------------------------------|
E|------------------------------------------|
(Guitar 1)

E|------0----------------0--------------2-----2---|
B|-----*-0--------------*-0------------3-3---3-3--|
G|----*---*------------*---*----------2---*-2---*-|
D|---2-----2--2--2----2-----2--2--2--0-----0------|
A|--2--------2--2-*--2--------2--2----------------|
E|-0---------------0------------------------------|
(Guitar 2)

E|-------------------------------------------------------------------|
B|-----------13--15---17---15---13------------------------16~~--17~~-|
G|15-17~~~~~---------------------------14~~~--16~~---18~~~-----------|
D|----------------------------------14-------------------------------|
A|-------------------------------------------------------------------|
E|-------------------------------------------------------------------|
(Guitar 1)

E|---5--------5------5------5-------7------7------7---|
B|--5-5------5-5----5-5----5-5-----7-7----7-7----7-7--|
G|-6---6----6---5--6---6--7---7---9---9--8---8--8---8-|
D|7------7-6------5------7-------9------9------9------|
A|----------------------------------------------------|
E|----------------------------------------------------|
(Guitar 2)

E|----0-----0------0------0------0------0------0------0--|
B|---*-0---*-0----*-0----*-0----*-0----*-0----*-0----*-0-|
G|4-*---4-*----4-*----4-*----8-*----8-*----8-*----8-*----|
D|-5-----5------5------5------9------9------9------9-----|
A|-------------------------------------------------------|
E|-------------------------------------------------------|
You said you'd always love me, all of my life.

E|----0-----0------0------0------0------0------0------0--|
B|---*-0---*-0----*-0----*-0----*-0----*-0----*-0----*-0-|
G|4-*---4-*----4-*----4-*----8-*----8-*----8-*----8-*----|
D|-5-----5------5------5------9------9------9------9-----|
A|-------------------------------------------------------|
E|-------------------------------------------------------|
And then you said your last goodbye, yeah goodbye.

E|-------0-------0---------0--------0--|
B|------*-0-----*-0-------*-0------*-0-|
G|11--11----11-*-----11--*----11--*----|
D|--12-------12--------12-------12-----|
A|-------------------------------------|
E|-------------------------------------|

E|--------0-------0-------0---------0-------0--|
B|-------*-0-----*-0-----*-0-------*-0-----*-0-|
G|---9--*----9--*----9--*---*--9--*----9--*----|
D|-11-11------11------11-----11-11------11-----|
A|---------------------------------------------|
E|---------------------------------------------|
Why the sudden changes? Why all all of the lies?

E|-----0------0-------0------0------0------0--|
B|----*-0----*-0-----*-0----*-0----*-0----*-0-|
G|8--*---8--*-----6-*----8-*----8-*----8-*----|
D|-10-----10-------8------9------9------9-----|
A|--------------------------------------------|
E|--------------------------------------------|
I should have seen it in your eyes.

E|----0-----0------0------0------0------0------0------0--|
B|---*-0---*-0----*-0----*-0----*-0----*-0----*-0----*-0-|
G|4-*---4-*----4-*----4-*----8-*----8-*----8-*----8-*----|
D|-5-----5------5------5------9------9------9------9-----|
A|-------------------------------------------------------|
E|-------------------------------------------------------|
The endless hours of heart ach, a waitin' for you.

E|----0-----0------0------0------0------0------0------0--|
B|---*-0---*-0----*-0----*-0----*-0----*-0----*-0----*-0-|
G|4-*---4-*----4-*----4-*----8-*----8-*----8-*----8-*----|
D|-5-----5------5------5------9------9------9------9-----|
A|-------------------------------------------------------|
E|-------------------------------------------------------|
My summer love has turned to rain, ohh the pain.

E|-------0-------0---------0--------0--|
B|------*-0-----*-0-------*-0------*-0-|
G|11--11----11-*-----11--*----11--*----|
D|--12-------12--------12-------12-----|
A|-------------------------------------|
E|-------------------------------------|

E|--------0-------0-------0---------0-------0--|
B|-------*-0-----*-0-----*-0-------*-0-----*-0-|
G|---9--*----9--*----9--*---*--9--*----9--*----|
D|-11-11------11------11-----11-11------11-----|
A|---------------------------------------------|
E|---------------------------------------------|
The silent emptiness of one sided love,

E|-----0------0-------0------0------0------0--|
B|----*-0----*-0-----*-0----*-0----*-0----*-0-|
G|8--*---8--*-----6-*----8-*----8-*----8-*----|
D|-10-----10-------8------9------9------9-----|
A|--------------------------------------------|
E|--------------------------------------------|
My life means nothing now you've gone, ohh my baby.

E|--------------------------------------------|
B|--------------------8-------10---/--12~~~~~-|
G|-------7-----9------------------------------|
D|-9------------------------------------------|
A|--------------------------------------------|
E|--------------------------------------------|
(Keyboard transcribed for Guitar {Guitar 1})

E|------0----------------0----------------0----------------0-----------|
B|-----*-0--------------*-0--------------*-0--------------*-0----------|
G|----*---*------------*---*------------*---*------------*---*---------|
D|---2-----2--2--2----2-----2--2--2----2-----2--2--2----2-----2--2--2--|
A|--2--------2--2-*--2--------2--2-*--2--------2--2-*--2--------2--2-*-|
E|-0---------------0-----------------0----------------0----------------|
(Guitar 2)

E|------------------------------------------|
B|------------------------------------------|
G|--------------------------14--------16~~~-|
D|--------14----16----17--------------------|
A|14----------------------------------------|
E|------------------------------------------|
(Guitar 1)

E|------0----------------0--------------2-----2---|
B|-----*-0--------------*-0------------3-3---3-3--|
G|----*---*------------*---*----------2---*-2---*-|
D|---2-----2--2--2----2-----2--2--2--0-----0------|
A|--2--------2--2-*--2--------2--2----------------|
E|-0---------------0------------------------------|
(Guitar 2)

E|-------------------------------------------------------------------|
B|-----------13--15---17---15---13------------------------16~~--17~~-|
G|15-17~~~~~---------------------------14~~~--16~~---18~~~-----------|
D|----------------------------------14-------------------------------|
A|-------------------------------------------------------------------|
E|-------------------------------------------------------------------|
(Guitar 1)

E|---5--------5------5------5-------7------7------7---|
B|--5-5------5-5----5-5----5-5-----7-7----7-7----7-7--|
G|-6---6----6---5--6---6--7---7---9---9--8---8--8---8-|
D|7------7-6------5------7-------9------9------9------|
A|----------------------------------------------------|
E|----------------------------------------------------|
(Guitar 2)

Тональность:

Это должно быть в ТОП-листе! - Топ-лист композиций



Назад
Рекомендуем посмотреть другие песни исполнителя «Black Sabbath»:

  • Комменты Fb ()
  • Комменты ВК



Добавить в Избранное Браузера
Сохранить здесь Очистить


x

0


+
-

+
-

-

Авторизация





Зарегистрироваться

M

Дата и время

  • 02:37:24
     

Социальные ссылки


Наши приложения

  • Muzbank App Play Market
  • Muzbank Amazon App