MUZBANK


МУЗЫКАЛЬНО-ИНФОРМАЦИОННЫЙ БАНК





BBlack Sabbath • Shockwave (аккорды и текст - chords & lyrics)


407

Print

Видео «Shockwave (Black Sabbath)»

Видео клипы к песне подбираются автоматически сайтом youtube. Возможны некоторые несоответствия клипов песне.

↑ Спрятать рекламу ↑






C5⁄(B#5) D#5 A#⁄(G) Cm7 Bm7 C C(⁄G) D#5 A#
E|--------------------------------------------------------------|
B|--------------------------------------------------------------|
G|---------------------------10-10p9----------------------------|
D|-----5-5(⁄3)--8-8-8-8(⁄5)--10-10p9p0-10-10(⁄5)--8-8-8---------|
A|---1-3-3(⁄1)--6-6-8-8(⁄5)------------10-10(⁄5)--6-6-8-------1-|
E|1-3---------------6-6(⁄3)-------------8--8(⁄3)------6--1--3---|
{Drag a bit!}

C5⁄(B#5) D#5 A#⁄(G) Cm7 Bm7 C C(⁄G) D#5 A#
E|---------------------------------------------------------|
B|---------------------------------------------------------|
G|----------------------10-10p9----------------------------|
D|5-5(⁄3)--8-8-8-8(⁄5)--10-10p9p0-10-10(⁄5)--8-8-8---------|
A|3-3(⁄1)--6-6-8-8(⁄5)------------10-10(⁄5)--6-6-8-------1-|
E|-------------6-6(⁄3)-------------8--8(⁄3)------6--1--3---|
{Drag a bit!}

Cm7 Cm7
E|---------------------------------------------------------------|
B|--------------------10-10-10--------------------------10-10-10-|
G|----------10-8~⁄(4)-10-10-10----------------10-8~⁄(4)-10-10-10-|
D|-----8--8-----------10-10-10-----------8--8-----------10-10-10-|
A|6/-10-10-------------------------6/-10--10---------------------|
E|---------------------------------------------------------------|
(Guitar 1)

C C⁄(G#) F D#⁄(C) Cm7 ⁄(Am7) C C⁄(G#) F D#⁄(C) Cm7 ⁄(Am7)
E|-------------------------------------------------------------------|
B|--------------------10-10-10⁄(7)----------------------10-10-10⁄(7)-|
G|-9--9⁄(5)-10-9⁄(5)--10-10-10⁄(7)---9--9⁄(5)-10-9⁄(5)--10-10-10⁄(7)-|
D|10-10⁄(6)-10-9⁄(5)--10-10-10⁄(7)--10-10⁄(6)-10-9⁄(5)--10-10-10⁄(7)-|
A|10-10⁄(6)--8-6⁄(3)----------------10-10⁄(6)--8-6⁄(3)---------------|
E|-8--8⁄(4)--------------------------8--8⁄(4)------------------------|
d d u u d u d d d u u d u d
(Guitar 2)

Cm7
E|------------------------------------------------------|
B|--------------------10-10-10--------------------------|
G|----------10-8~⁄(4)-10-10-10----------------10-8~⁄(4)-|
D|-----8--8-----------10-10-10----------8---8-----------|
A|6/-10-10-------------------------6/-10-10-------------|
E|------------------------------------------------------|
(Guitar 1)

C C⁄(G#) F D#⁄(C) Cm7 ⁄(Am7) C C⁄(G#) F E Eb F E Eb
E|--------------------------------------------------------------|
B|--------------------10-10-10⁄(7)------------------------------|
G|-9--9⁄(5)-10-9⁄(5)--10-10-10⁄(7)---9--9⁄(5)-------------------|
D|10-10⁄(6)-10-9⁄(5)--10-10-10⁄(7)--10-10⁄(6)-10-9-8-10-9-8-----|
A|10-10⁄(6)--8-6⁄(3)----------------10-10⁄(6)--8-7-6--8-7-6-----|
E|-8--8⁄(4)--------------------------8--8⁄(4)---------------6~~-|
d d u u d u d d d
(Guitar 2)

C C⁄(G#) F D#⁄(C) Cm7 ⁄(Am7) C C⁄(G#) F D#⁄(C) Cm7 ⁄(Am7)
E|-------------------------------------------------------------------|
B|--------------------10-10-10⁄(7)----------------------10-10-10⁄(7)-|
G|-9--9⁄(5)-10-9⁄(5)--10-10-10⁄(7)---9--9⁄(5)-10-9⁄(5)--10-10-10⁄(7)-|
D|10-10⁄(6)-10-9⁄(5)--10-10-10⁄(7)--10-10⁄(6)-10-9⁄(5)--10-10-10⁄(7)-|
A|10-10⁄(6)--8-6⁄(3)----------------10-10⁄(6)--8-6⁄(3)---------------|
E|-8--8⁄(4)--------------------------8--8⁄(4)------------------------|
d d u u d u d d d u u d u d
There's no reason for you to run. You

C C⁄(G#) F D#⁄(C) Cm7 ⁄(Am7) C C⁄(G#) F D#⁄(C) Cm7 ⁄(Am7)
E|-------------------------------------------------------------------|
B|--------------------10-10-10⁄(7)----------------------10-10-10⁄(7)-|
G|-9--9⁄(5)-10-9⁄(5)--10-10-10⁄(7)---9--9⁄(5)-10-9⁄(5)--10-10-10⁄(7)-|
D|10-10⁄(6)-10-9⁄(5)--10-10-10⁄(7)--10-10⁄(6)-10-9⁄(5)--10-10-10⁄(7)-|
A|10-10⁄(6)--8-6⁄(3)----------------10-10⁄(6)--8-6⁄(3)---------------|
E|-8--8⁄(4)--------------------------8--8⁄(4)------------------------|
d d u u d u d d d u u d u d
can't escape the name of the chosen one.

E|------------------------------------------------------|
B|------------------------------------------------------|
G|------------------------------------------------10-8~-|
D|----------------------------------------8--8(⁄4)------|
A|----------------------------------6/-10--10-----------|
E|------------------------------------------------------|
(Guitar 2)

C C⁄(G#) F D#⁄(C) Cm7 ⁄(Am7) C C⁄(G#) F D#⁄(C) Cm7 ⁄(Am7)
E|-------------------------------------------------------------------|
B|--------------------10-10-10⁄(7)----------------------10-10-10⁄(7)-|
G|-9--9⁄(5)-10-9⁄(5)--10-10-10⁄(7)---9--9⁄(5)-10-9⁄(5)--10-10-10⁄(7)-|
D|10-10⁄(6)-10-9⁄(5)--10-10-10⁄(7)--10-10⁄(6)-10-9⁄(5)--10-10-10⁄(7)-|
A|10-10⁄(6)--8-6⁄(3)----------------10-10⁄(6)--8-6⁄(3)---------------|
E|-8--8⁄(4)--------------------------8--8⁄(4)------------------------|
d d u u d u d d d u u d u d
Black moon rising in a blood red sky. It's

C C⁄(G#) F D#⁄(C) Cm7 ⁄(Am7) C C⁄(G#) F D#⁄(C) Cm7 ⁄(Am7)
E|-------------------------------------------------------------------|
B|--------------------10-10-10⁄(7)----------------------10-10-10⁄(7)-|
G|-9--9⁄(5)-10-9⁄(5)--10-10-10⁄(7)---9--9⁄(5)-10-9⁄(5)--10-10-10⁄(7)-|
D|10-10⁄(6)-10-9⁄(5)--10-10-10⁄(7)--10-10⁄(6)-10-9⁄(5)--10-10-10⁄(7)-|
A|10-10⁄(6)--8-6⁄(3)----------------10-10⁄(6)--8-6⁄(3)---------------|
E|-8--8⁄(4)--------------------------8--8⁄(4)------------------------|
d d u u d u d d d u u d u d
time to realize that you're gonna die!

E|------------------------------------------------------|
B|------------------------------------------------------|
G|------------------------------------------------10-8~-|
D|----------------------------------------8--8(⁄4)------|
A|----------------------------------6/-10--10-----------|
E|------------------------------------------------------|
(Guitar 2)

(Break)
C C⁄A#/C A# C A# A# A A G G C C⁄A#/C A# C A# A# A A G G
E|-------------------------------------------------------------------|
B|-------------------------------------------------------------------|
G|-9--9⁄7/-9--7--10--7-8--6-6--4-4---9--9⁄7/-9--7---9--7-7--6-6--4-4-|
D|10-10⁄8/10--8--10--8-8--7-7--5-5--10-10⁄8/10--8--10--8-8--7-7--5-5-|
A|10-10⁄8/10--8--10--8-8--7-7--5-5--10-10⁄8/10--8--10--8-8--7-7--5-5-|
E|-8--8⁄6/-8--6---8--6-6--5-5--3-3---8--8⁄6/-8--6---8--6-6--5-5--3-3-|
{....................slight pm......................}
(Guitar 1)
Leaving your bo-dy is your answer, that's what you plan to do

[f>>>p]
E|-----------------------|
B|-----------------------|
G|-----------------------|
D|-8~~~~/10~~~(Let fade)-|
A|-----------------------|
E|-----------------------|
(Guitar 2)

D D⁄C/D C D D B B A A D D⁄C/D
E|---------------------------------------------------------|
B|---------------------------------------------------------|
G|11-11⁄-9/11---9--11-11--8-8--6-6(/)-11-11⁄-9/11----------|
D|12-12⁄10/12--10--12-12--9-9--7-7(/)-12-12⁄10/12----------|
A|12-12⁄10/12--10--12-12--9-9--7-7(/)-12-12⁄10/12----------|
E|10-10⁄-8/10---8--10-10--7-7--5-5(/)-10-10⁄-8/10--10-9-8~-|
{....................slight pm..................}
(Guitar 1)
You're weaving time to cheat Death's master, you're on your own..going through

[f>>>p]
E|--------------------------|
B|--------------------------|
G|--------------------------|
D|10~~~~~/12~~~~~(Let fade)-|
A|--------------------------|
E|--------------------------|
(Guitar 2)

C C A [f>>>p]
E|--------------------|
B|--------------------|
G|-9---9--6-----------|
D|10--10--7-----------|
A|10--10--7-{hold...}-|
E|-8---8--5-----------|
(Guitar 1)

Dm7 C#m7 Dm7 Dm7 C#m7 Dm7/Em7 Em7 Em7 Dm7 C#m7 Dm7 Dm7 C#m7 Dm7/Em7 Em7 Em7
E|-----------------------------------------------------------------|
B|-----------------------------------------------------------------|
G|12-11-12--12-11-12-12/14-14-14~--12-11-12--12-11-12-12/14-14-14~-|
D|12-11-12--12-11-12-12/14-14-14~--12-11-12--12-11-12-12/14-14-14~-|
A|-----------------------------------------------------------------|
E|-----------------------------------------------------------------|
We're coming! We're taking over your mind! And you think you're on your own

Dm7 C#m7 Dm7 Dm7 C#m7 Dm7/Em7 Em7 Em7 Dm7 C#m7 Dm7 Dm7 C#m7 Dm7/Em7 Em7 Em7
E|-----------------------------------------------------------------|
B|-----------------------------------------------------------------|
G|12-11-12--12-11-12-12/14-14-14~--12-11-12--12-11-12-12/14-14-14~-|
D|12-11-12--12-11-12-12/14-14-14~--12-11-12--12-11-12-12/14-14-14~-|
A|-----------------------------------------------------------------|
E|-----------------------------------------------------------------|
Don't believe you are the only one here. Look around, you're not alone!

CHOURSE
D D D⁄(B) F C C D D D ⁄(B) F G G
E|---------------------------------------------------|
B|---------------------------------------------------|
G|11-11-11⁄(8)--10-x--9--9-x/11-11-11⁄(8)-10-x-12-12-|
D|12-12-12⁄(9)--10-x-10-10-x/12-12-12⁄(9)-10-x-12-12-|
A|12-12-12⁄(9)---8-x-10-10-x/12-12-12⁄(9)--8-x-10-10-|
E|10-10-10⁄(7)-----x--8--8-x/10-10-10⁄(7)------------|
d d d d d d
Feel the forces of an other world

D D D⁄(B) F C C D D D ⁄(B) F G G
E|---------------------------------------------------|
B|---------------------------------------------------|
G|11-11-11⁄(8)--10-x--9--9-x/11-11-11⁄(8)-10-x-12-12-|
D|12-12-12⁄(9)--10-x-10-10-x/12-12-12⁄(9)-10-x-12-12-|
A|12-12-12⁄(9)---8-x-10-10-x/12-12-12⁄(9)--8-x-10-10-|
E|10-10-10⁄(7)-----x--8--8-x/10-10-10⁄(7)------------|
d d d d d d
Ghostly shadows fill your mind

D D D⁄(B) F C C D D D ⁄(B) F G G
E|---------------------------------------------------|
B|---------------------------------------------------|
G|11-11-11⁄(8)--10-x--9--9-x/11-11-11⁄(8)-10-x-12-12-|
D|12-12-12⁄(9)--10-x-10-10-x/12-12-12⁄(9)-10-x-12-12-|
A|12-12-12⁄(9)---8-x-10-10-x/12-12-12⁄(9)--8-x-10-10-|
E|10-10-10⁄(7)-----x--8--8-x/10-10-10⁄(7)------------|
d d d d d d
Evil power hanging over you

D D D⁄(B) F C C C C C C
E|-------------------------------------|
B|-------------------------------------|
G|11-11-11⁄(8)--10-x--9--9--9--9--9--9-|
D|12-12-12⁄(9)--10-x-10-10-10-10-10-10-|
A|12-12-12⁄(9)---8-x-10-10-10-10-10-10-|
E|10-10-10⁄(7)-----x--8--8--8--8--8--8-|
d d d d d d d d
{.....pm.....}
As you freeze you're like a child. Look behind you!

E F# E F# E F# E F#
E|-----------------------------------------------------------------|
B|-----------------------------------------------------------------|
G|---9--11---------9--11-------------9--11-------------------9--11-|
D|---9--11---------9--11-------------9--11-------------------9--11-|
A|---7---9---------7---9-------------7---9-------------------7---9-|
E|-----------------------------------------------------------------|
(Guitar 1 - Electric)

E F# E F# E F# E F#
E|-----------------------------------------------------------------|
B|-----------------------------------------------------------------|
G|xx-9--11------xx-9--11----------xx-9--11----------------xx-9--11-|
D|xx-9--11------xx-9--11----------xx-9--11----------------xx-9--11-|
A|xx-7---9------xx-7---9----------xx-7---9----------------xx-7---9-|
E|-----------------------------------------------------------------|
{................................Strum.........................}
(Guitar 2 - 6 string acoustic)
Somebody's calling! Someone is near! Feel yourself falling, falling with fear

D F# D F# E F# E F#
E|---------------------------------------------------------------------|
B|---------------------------------------------------------------------|
G|---7---9------------------7---9---------9--11------------------9--11-|
D|---7--10------------------7--10---------9--12------------------9--12-|
A|---5--10------------------5--10---------7--12------------------7--12-|
E|-------8----------------------8------------10---------------------10-|
(Guitar 1 - Electric)

D F# D F# E D E D
E|----------------------------------------------------------------------|
B|----------------------------------------------------------------------|
G|xx-9---9---------------xx-9---9-------xx-9--11---------------xx-9--11-|
D|xx-9--10---------------xx-9--10-------xx-9--12---------------xx-9--12-|
A|xx-7--10---------------xx-7--10-------xx-7--12---------------xx-7--12-|
E|-------8----------------------8-------------10---------------------10-|
{................................Strum.........................}
(Guitar 2 - 6 string acoustic)
You tell yourself you're dreaming. You realize you're screaming.

E|---------------------------------------------------------|
B|--------------------5-------------------------------5----|
G|7^(9`7)-5-5--5--5h7--7~----------7^(9`7)-5-5--5--5h7--7~-|
D|---------------------------------------------------------|
A|---------------------------------------------------------|
E|---------------------------------------------------------|
(Guitar 1 - Electric)

F⁄E C C C C C D D F⁄E C C C C C D D
E|-----------------------------------------------------------------|
B|-----------------------------------------------------------------|
G|10⁄9--9---9---9---9--9-xx-11-11--10⁄9--9---9---9---9--9-xx-11-11-|
D|10⁄9-10--10--10--10-10-xx-12-12--10⁄9-10--10--10--10-10-xx-12-12-|
A|-8⁄7-10--10--10--10-10-xx-12-12---8⁄7-10--10--10--10-10-xx-12-12-|
E|------8---8---8---8--8-xx-10-10--------8---8---8---8--8-xx-10-10-|
{..................................Strum.........................}
(Guitar 2 - 6 string acoustic)
You know that this couldn't happen to you.
You tell yourself that it just can't be true

E|------------------------|
B|--------------------5---|
G|7^(9`7)-5-5--5--5h7--7~-|
D|------------------------|
A|------------------------|
E|------------------------|
(Guitar 1 - Electric)

F⁄E C C C C C D D
E|--------------------------------|
B|--------------------------------|
G|10⁄9--9---9---9---9--9-xx-11-11-|
D|10⁄9-10--10--10--10-10-xx-12-12-|
A|-8⁄7-10--10--10--10-10-xx-12-12-|
E|------8---8---8---8--8-xx-10-10-|
{............Strum.............}
(Guitar 2 - 6 string acoustic)
But there is nothing you can do, oh!

E|-------------------------------------------------|
B|--------------------------------------18~~~⁄(12)-|
G|----------------------------15-17p15-------------|
D|17~~~~------------------------------17-----------|
A|-----------------------15h17---------------------|
E|-------------------------------------------------|
{...................wah peddle....................}
(Guitar 1 Lead)

E E D E E E D E
E|---------------------------------------------------|
B|---------------------------------------------------|
G|---------------------------------------------------|
D|-9-9--7-9--------------2~--9-9--7-9-------------2~-|
A|-7-7--5-7--5--2------------7-7--5-7--5--2----------|
E|---------------5-4-3p0-------------------5-4-3p0---|
(Guitar 2 Rythem)

Gm7
E|---------------------------------------------------------|
B|12~~~~---------------------------------------------------|
G|12~~~~--12p10-12p10--10----------------------------------|
D|-------------------12--12p10--10-------------------------|
A|----------------------------12--12-----------10----------|
E|-----------------------------------10^(11`10)--12~~~(⁄7)-|
{.....................wah peddle.........................}
(Guitar 1 Lead)

E E D E E E D E
E|---------------------------------------------------|
B|---------------------------------------------------|
G|---------------------------------------------------|
D|-9-9--7-9--------------2~--9-9--7-9-------------2~-|
A|-7-7--5-7--5--2------------7-7--5-7--5--2----------|
E|---------------5-4-3p0-------------------5-4-3p0---|
(Guitar 2 Rythem)

E|------------------------------------------------------|
B|-----------------------------------------------15-17~-|
G|----------17p15h17p15---------------------15-17-------|
D|-----15h17-----------17p15-15-17p15--15h17------------|
A|15/17------------------------------17-----------------|
E|------------------------------------------------------|

{.....................wah peddle.........................}
(Guitar 1 Lead)

E E D E E E D E
E|---------------------------------------------------|
B|---------------------------------------------------|
G|---------------------------------------------------|
D|-9-9--7-9--------------2~--9-9--7-9-------------2~-|
A|-7-7--5-7--5--2------------7-7--5-7--5--2----------|
E|---------------5-4-3p0-------------------5-4-3p0---|
(Guitar 2 Rythem)

E|---------------------------------------------------------------------------|
B|15-------------------------------------------------------------------------|
G|--17~-(14h17 tr~~)------------------------------------------------------15-|
D|------------------(15h17 tr~~)-17p14-------------------------------15h17---|
A|------------------------------------17p15⁄13--13-----------13/15h17--------|
E|--------------------------------------------15--15-13-13h15----------------|
{.............................wah peddle....................................}
(Guitar 1 Lead)

E|--------------------------------------------------------------------|
B|15-15h17p15--15--15-15h17p15--15--15-15h17p15--15-17^(19~)-15h17p15-|
G|-----------17---------------17---------------17---------------------|
D|--------------------------------------------------------------------|
A|--------------------------------------------------------------------|
E|--------------------------------------------------------------------|
{.............................wah peddle....................................}
(Guitar 1 Lead)

E E D E E E D E
E|---------------------------------------------------|
B|---------------------------------------------------|
G|---------------------------------------------------|
D|-9-9--7-9--------------2~--9-9--7-9-------------2~-|
A|-7-7--5-7--5--2------------7-7--5-7--5--2----------|
E|---------------5-4-3p0-------------------5-4-3p0---|
(Guitar 2 Rythme)

E|----------------------------------------------------------------------------|
B|----------------------------------------------------------------------------|
G|--------------------------12-(12h14 tr~~)--12-(12h14 tr~~)--12-(12h14 tr~~)-|
D|------------9-9p7--9-9p7-----------------14---------------14----------------|
A|-----------------9------9---------------------------------------------------|
E|10-6^⁄(3`6)-----------------------------------------------------------------|
{.............................wah peddle....................................}
(Guitar 1 Lead)

E|------------------------------------------------------------------------|
B|---------------------------------------------------15h18p15--15h18p15---|
G|12-(12h14 tr~~)--12-(12h14 tr~~)--12-(12h14 tr~~)----------17--------17-|
D|---------------14---------------14--------------------------------------|
A|------------------------------------------------------------------------|
E|------------------------------------------------------------------------|
{.............................wah peddle....................................}
(Guitar 1 Lead)

E E D E E E D E
E|-------------------------------------------------------------|
B|-------------------------------------------------------------|
G|-------------------------------------------------------------|
D|-9-9--7-9--------------2~--9-9--7-9--------------------------|
A|-7-7--5-7--5--2------------7-7--5-7-------------------14-12~-|
E|---------------5-4-3p0---------------------------------------|
(Guitar 2 Rythme)

E|---------------15-18p15-----------------------------------------|
B|15h18p15--15h18--------18-15-15h18p15---------------------------|
G|--------17---------------------------17-15-15h17p15--15---------|
D|---------------------------------------------------17-----------|
A|---------------------------------------------------------14-12~-|
E|----------------------------------------------------------------|
{.....................wah peddle........................}
(Guitar 1 Lead)

BREAK
E|-------------------------------------------------------------------|
B|--------------------------------8----------------------------------|
G|7^(9`7)-5-7^(9`7)-5--------7^(9)--9p7--------7^(9`7)-5-7^(9`7)-----|
D|-------------------7~--5-7-----------7-7--5-7------------------7-7-|
A|-------------------------------------------------------------------|
E|-------------------------------------------------------------------|
(Guitar 1)

F⁄E C C C C C D D F⁄E C C C C C D D
E|-----------------------------------------------------------------|
B|-----------------------------------------------------------------|
G|10⁄9--9---9---9---9--9-xx-11-11--10⁄9--9---9---9---9--9-xx-11-11-|
D|10⁄9-10--10--10--10-10-xx-12-12--10⁄9-10--10--10--10-10-xx-12-12-|
A|-8⁄7-10--10--10--10-10-xx-12-12---8⁄7-10--10--10--10-10-xx-12-12-|
E|------8---8---8---8--8-xx-10-10--------8---8---8---8--8-xx-10-10-|
{..................................Strum.........................}
(Guitar 2 - 6 string acoustic)

E|-17~~~~~~~~~~~~-|
B|----------------|
G|----------------|
D|----------------|
A|----------------|
E|----------------|
(Guitar 1)

A5 A5 A5 A5 A5
E|----------------------------------------------------|
B|----------------------------------------------------|
G|--------2---------2---------2---------2-----------2-|
D|--------2---------2---------2---------2-----------2-|
A|-0--0-0-0--0--0-0-0--0--0-0-0--0--0-0-0--0--0-0-0-0-|
E|----------------------------------------------------|
{...........................pm..........................}
(Guitar 2)

E|-------------------------------------------------------------------|
B|-----8-------------------------------------------------------------|
G|7^(9)-7~----5-----------------7^(9)-[rm h]11-7^(9`7)-7p5h7p5-7~~~~-|
D|---------5-7--7-7~------------------------------------------7------|
A|-------------------------------------------------------------------|
E|-------------------------------------------------------------------|
(Guitar 1)

Dm7 C#m7 Dm7 Dm7 C#m7 Dm7/Em7 Em7 Em7 Dm7 C#m7 Dm7 Dm7 C#m7 Dm7/Em7 Em7 Em7
E|-----------------------------------------------------------------|
B|-----------------------------------------------------------------|
G|12-11-12--12-11-12-12/14-14-14~--12-11-12--12-11-12-12/14-14-14~-|
D|12-11-12--12-11-12-12/14-14-14~--12-11-12--12-11-12-12/14-14-14~-|
A|-----------------------------------------------------------------|
E|-----------------------------------------------------------------|
(Guitar 2)

E|-----------------------------------------|
B|------------------------5----------------|
G|5-7p5h7p5h7p5--7p5h7p5h7-7p5h7p5---------|
D|-------------7------------------7-7~(⁄3)-|
A|-----------------------------------------|
E|-----------------------------------------|

E|--------------------------------------------|
B|--------------------------------------------|
G|-7^(9)-[rm h]11-5---------------------------|
D|-----------------7~~--5-5h7p5h7p5h7p5-7~~~~-|
A|--------------------------------------------|
E|--------------------------------------------|
(Guitar 1)

Dm7 C#m7 Dm7 Dm7 C#m7 Dm7/Em7 Em7 Em7 Dm7 C#m7 Dm7 Dm7 C#m7 Dm7/Em7 Em7 Em7
E|-----------------------------------------------------------------|
B|-----------------------------------------------------------------|
G|12-11-12--12-11-12-12/14-14-14~--12-11-12--12-11-12-12/14-14-14~-|
D|12-11-12--12-11-12-12/14-14-14~--12-11-12--12-11-12-12/14-14-14~-|
A|-----------------------------------------------------------------|
E|-----------------------------------------------------------------|
(Guitar 2)

CHOURSE
D D D⁄(B) F C C D D D ⁄(B) F G G
E|---------------------------------------------------|
B|---------------------------------------------------|
G|11-11-11⁄(8)--10-x--9--9-x/11-11-11⁄(8)-10-x-12-12-|
D|12-12-12⁄(9)--10-x-10-10-x/12-12-12⁄(9)-10-x-12-12-|
A|12-12-12⁄(9)---8-x-10-10-x/12-12-12⁄(9)--8-x-10-10-|
E|10-10-10⁄(7)-----x--8--8-x/10-10-10⁄(7)------------|
d d d d d d
Ghostly shadows from an other world

D D D⁄(B) F C C D D D ⁄(B) F G G
E|---------------------------------------------------|
B|---------------------------------------------------|
G|11-11-11⁄(8)--10-x--9--9-x/11-11-11⁄(8)-10-x-12-12-|
D|12-12-12⁄(9)--10-x-10-10-x/12-12-12⁄(9)-10-x-12-12-|
A|12-12-12⁄(9)---8-x-10-10-x/12-12-12⁄(9)--8-x-10-10-|
E|10-10-10⁄(7)-----x--8--8-x/10-10-10⁄(7)------------|
d d d d d d
Evil forces in your mind

D D D⁄(B) F C C D D D ⁄(B) F G G
E|---------------------------------------------------|
B|---------------------------------------------------|
G|11-11-11⁄(8)--10-x--9--9-x/11-11-11⁄(8)-10-x-12-12-|
D|12-12-12⁄(9)--10-x-10-10-x/12-12-12⁄(9)-10-x-12-12-|
A|12-12-12⁄(9)---8-x-10-10-x/12-12-12⁄(9)--8-x-10-10-|
E|10-10-10⁄(7)-----x--8--8-x/10-10-10⁄(7)------------|
d d d d d d
Trapped between the walls of life and death.

D D D⁄(B) F C C C C C C
E|-------------------------------------|
B|-------------------------------------|
G|11-11-11⁄(8)--10-x--9--9--9--9--9--9-|
D|12-12-12⁄(9)--10-x-10-10-10-10-10-10-|
A|12-12-12⁄(9)---8-x-10-10-10-10-10-10-|
E|10-10-10⁄(7)-----x--8--8--8--8--8--8-|
d d d d d d d d
{.....pm.....}
Frozen in the realms of time. Look behind you!

E|---------------------------------------------------|
B|---------------------------------------------------|
G|---------------------------------------------------|
D|-9-9--7-9--------------2~--9-9--7-9-------------2~-|
A|-7-7--5-7--5--2------------7-7--5-7--5--2----------|
E|---------------5-4-3p0-------------------5-4-3p0---|

E|---------------------------------------------------|
B|---------------------------------------------------|
G|---------------------------------------------------|
D|-9-9--7-9--------------2~--9-9--7-9-------------2~-|
A|-7-7--5-7--5--2------------7-7--5-7--5--2----------|
E|---------------5-4-3p0-------------------5-4-3p0---|
Ohh oh ohh Ohh oh ohhh

E|---------------------------------------------------|
B|---------------------------------------------------|
G|---------------------------------------------------|
D|-9-9--7-9--------------2~--9-9--7-9-------------2~-|
A|-7-7--5-7--5--2------------7-7--5-7--5--2----------|
E|---------------5-4-3p0-------------------5-4-3p0---|
Ohh oh ohh Ohh oh ohh
You feel yourself falling. Your at the end of the line

E|---------------------------------------------------|
B|---------------------------------------------------|
G|---------------------------------------------------|
D|-9-9--7-9--------------2~--9-9--7-9-------------2~-|
A|-7-7--5-7--5--2------------7-7--5-7--5--2----------|
E|---------------5-4-3p0-------------------5-4-3p0---|
Ohh oh ohh Ohh oh ohh
Your body is calling, but your senses are blind

E|---------------------------------------------------|
B|---------------------------------------------------|
G|---------------------------------------------------|
D|-9-9--7-9--------------2~--9-9--7-9-------------2~-|
A|-7-7--5-7--5--2------------7-7--5-7--5--2----------|
E|---------------5-4-3p0-------------------5-4-3p0---|
Ohh oh ohh Ohh oh ohh
Cold cold feeling a running through your brains

E|---------------------------------------------------|
B|---------------------------------------------------|
G|---------------------------------------------------|
D|-9-9--7-9--------------2~--9-9--7-9-------------2~-|
A|-7-7--5-7--5--2------------7-7--5-7--5--2----------|
E|---------------5-4-3p0-------------------5-4-3p0---|
Ohh oh ohh Ohh oh ohh
Ice cold fingers flowing through your veins

E|---------------------------------------------------|
B|---------------------------------------------------|
G|---------------------------------------------------|
D|-9-9--7-9--------------2~--9-9--7-9-------------2~-|
A|-7-7--5-7--5--2------------7-7--5-7--5--2----------|
E|---------------5-4-3p0-------------------5-4-3p0---|
Ohh oh ohh Ohh oh ohh
{Begin fade}
E|---------------------------------------------------|
B|---------------------------------------------------|
G|---------------------------------------------------|
D|-9-9--7-9--------------2~--9-9--7-9-------------2~-|
A|-7-7--5-7--5--2------------7-7--5-7--5--2----------|
E|---------------5-4-3p0-------------------5-4-3p0---|
Ohh oh ohh Ohh oh ohh

E|---------------------------------------------------|
B|---------------------------------------------------|
G|---------------------------------------------------|
D|-9-9--7-9--------------2~--9-9--7-9-------------2~-|
A|-7-7--5-7--5--2------------7-7--5-7--5--2----------|
E|---------------5-4-3p0-------------------5-4-3p0---|
Ohh oh ohh Ohh oh ohh

E|---------------------------------------------------|
B|---------------------------------------------------|
G|---------------------------------------------------|
D|-9-9--7-9--------------2~--9-9--7-9-------------2~-|
A|-7-7--5-7--5--2------------7-7--5-7--5--2----------|
E|---------------5-4-3p0-------------------5-4-3p0---|
Ohh oh ohh Ohh oh ohh

Тональность:

Это должно быть в ТОП-листе! - Топ-лист композиций



Назад
Рекомендуем посмотреть другие песни исполнителя «Black Sabbath»:

  • Комменты Fb ()
  • Комменты ВК



Добавить в Избранное Браузера
Сохранить здесь Очистить


x

0


+
-

+
-

-

Авторизация





Зарегистрироваться

M

Дата и время

  • 03:34:20
     

Социальные ссылки


Наши приложения

  • Muzbank App Play Market
  • Muzbank Amazon App