MUZBANK


МУЗЫКАЛЬНО-ИНФОРМАЦИОННЫЙ БАНК





BBlack Sabbath • Sweetleaf (аккорды и текст - chords & lyrics)


317

Print

Видео «Sweetleaf (Black Sabbath)»

Видео клипы к песне подбираются автоматически сайтом youtube. Возможны некоторые несоответствия клипов песне.

↑ Спрятать рекламу ↑





Alright now...
||--------------------------------------------------||-------
||--------------------------------------------------||-------
||----------5-4-3--3-3-5----------5-4-3--3/12b-12b--||-------
||--5--5⁄-----------------5--5⁄---------------------||-5-----

--------------------------------------------------------9--7-
----------------7-7--7--7-7-7-5------------------------------
-------3--7---------------------7--------------3--7----------
--3----------5--------------------5-------3----------5-------

-5-----------------------------------------------------------
-----7-5------------------------------7-7--7--7-7-5----------
---------7-5-3---------------3--7-------------------7-5------
----------------5-------3----------5---------------------5---

-------------------------------------||----------------------
------------------7-7--7--7-7-7-5----||----------------------
---------3--7---------------------7--||----------------------
----3----------5---------------------||-5------5------5-----5

-------------------------------------------------------------
---------9----------------9-------9---------11-11-11-11-11-11
-------9----------------9---9---9---9-----11-----------------
-----7-----7-7-7-7-7--7-------7-------7-9--------------------

-------------------------------------------------------------
-11-11-11-11-11-11-----9----------------9-------9----------11
---------------------9----------------9---9---9---9-----11---
-------------------7-----7-7-7-7-7--7-------7-------7-9------

-------------------------------------------------------------
--13--11-9----9-11-9--------9----------------9-------9-------
-----------11--------11---9----------------9---9---9---9-----
------------------------7-----7-7-7-7-7--7-------7-------7-9-

-------------------------------------------------------------
-11-11-11-11-11-11-11-11-11-11-11-11-11-11-11-11-11----------
-------------------------------------------------------------
----------------------------------------------------9-9-9-9-9

-----------------------------------------------------------||
-----------------------------------------------------------||
-----------------------------------------------------------||
9-9-9-9-9-9-9--7-9⁄--------7-9⁄--------7-9⁄------7-9-------||
Solo(not actual Geezer solo...but an example)
-------------------------------------------------------------
---9-7-------7---9-7---------------9-7---7-9-11-9-7---7------
-------9-7-9---9-----9-7---7-----------9------------9---9-7--
-9-----------------------9---9-7-9--------------------------9

-------------------------------------------------------------
-----9-7-------7---9-7---------------------------------------
-7-------9-7-9---9-----9-7---7-----/4----------/4-------/4---
---9-----------------------9---9-7----5-4-3-------5-4-3----5-

--------||b=bend
--------||/=slide up
--------||⁄=slide down
-4-3----||

Тональность:

Это должно быть в ТОП-листе! - Топ-лист композиций



Назад
Рекомендуем посмотреть другие песни исполнителя «Black Sabbath»:

  • Комменты Fb ()
  • Комменты ВК



Добавить в Избранное Браузера
Сохранить здесь Очистить


x

0


+
-

+
-

-

Авторизация





Зарегистрироваться

M

Дата и время

  • 15:31:28
     

Социальные ссылки


Наши приложения

  • Muzbank App Play Market
  • Muzbank Amazon App