MUZBANK


МУЗЫКАЛЬНО-ИНФОРМАЦИОННЫЙ БАНК





BBlack Sabbath • The Dark (аккорды и текст - chords & lyrics)


393

Print

Видео «The Dark (Black Sabbath)»

Видео клипы к песне подбираются автоматически сайтом youtube. Возможны некоторые несоответствия клипов песне.

↑ Спрятать рекламу ↑





------------------------------------------------------------------------------|
--------5-4-------------------------------------------------------------------|
-----------6------------------------------------------------------------------|
------------------------------------------------------------------------------|
---------------(5/)7-------(3 s/)-6--------------2----------------------------|
-3(⁄1)--------------8(⁄5)-----------3~~--2--1p0--2---3~~~--2~~~--0--2~~~--3~~-|
vp in
Heavy Reverb and Flang
(Guitar 3)
------------------------------------------------------------------------|
----------------------------------------------------------------21~⁄20/-|
------------------------------------------------------------------------|
------------------------------------------------------------------------|
------------------------------------------------------------------------|
------------------------------------------------------------------------|
(Guitar 2) vp in
[p>>>>f]
------------------------------------------------------------------|
------------------------------------------------------------------|
------------------------------------------------------------------|
------------------------------------------------------------------|
------------------------2--------------------------------2--------|
-1-2-3-3--1-2-3-3--1-2-3-3-1-3-3--1-2-3-3--1-2-3-3--1-2-3-3-1-3-3-|

(Guitar 1)
vp in
--------------------------------|
--------------------------------|
--------------------------------|
--------------------------------|
------------------------2-------|
1-2-3-3--1-2-3-3--1-2-3-3-1-3-3-|
(Guitar 1)

------------------------------------------------------------------------|
-21~⁄20~/21~⁄20~/21~⁄20~/21~⁄20~/21~⁄20~/21~⁄20~/21~⁄20~/21~⁄20~/21~~~~-|
------------------------------------------------------------------------|
------------------------------------------------------------------------|
------------------------------------------------------------------------|
------------------------------------------------------------------------|
(Guitar 2)

---------------------------------------------------------------------|
---------------------------------------------------------------------|
---------------------------------------------------------------------|
---------------------------------------------------------------------|
------15~~~-14~~~-------(12/)-15~~~--14~~~--11~~~~--13~~~~-----------|
-----------------14~~---------------------------------------3~~~~~~~-|
(Guitar 3) vp out
Heavy Reverb and Flang

-----------------------------------------------------------|
-----------------------------------------------------------|
-----------------------------------------------------------|
-----------------------------------------------------------|
-------5-4~~~~--------5-4~~~~-------5-4~~~~--------5-4~~~~-|
---4-4------------4-4------------4-4------------4-4--------|
(Guitar 1)

------------------------------------------------------------------------------|
-21~⁄20~/21~⁄20~/21~⁄20~/21~⁄20~/21~⁄20~/21~⁄20~/21~⁄20~/21~⁄20~/21~⁄20~/21~~-|
------------------------------------------------------------------------------|
------------------------------------------------------------------------------|
------------------------------------------------------------------------------|
------------------------------------------------------------------------------|
(Guitar 2)

------------------------------------------------------------|
------------------------------------------------------------|
------------------------------------------------------------|
------------------------------------------------------------|
---------7-6~~~~------7-6~~~~--------7-6~~~~--------7-6~~~~-|
-4-5-6-6-----------6-6------------6-6------------6-6--------|
(Guitar 1)

-----------------------------------------|
-17~⁄16~/17~⁄16~/17~⁄16~/17~⁄16~/17~⁄16~-|
-----------------------------------------|
-----------------------------------------|
-----------------------------------------|
-----------------------------------------|

E|------------------------------------------
B|/17~⁄16~/17~⁄16~/17~⁄16~/17~⁄16~/17~⁄16~/-
G|------------------------------------------
D|------------------------------------------
A|------------------------------------------
E|------------------------------------------
(Guitar 2)

------------------------------------------------------
-17~⁄16~/17~⁄16~/17~⁄16~/17~⁄16~/17~~-----------------
-------------------------------------17⁄⁄⁄⁄⁄⁄⁄⁄⁄⁄⁄(3)-
-------------------------------------17⁄⁄⁄⁄⁄⁄⁄⁄⁄⁄⁄(3)-
------------------------------------------------------
------------------------------------------------------
(Guitar 2) (Guitar 1 actually starts here)

-------------------------------------------------------------------
-------------------------------------------------------------------
-------------------------------------------------------------------
-------------------------------------------------------------------
------------------------2--------------------------------2---------
-1-2-4-4--1-2-4-4--1-2-4-4-1-4-4--1-2-4-4--1-2-4-4--1-2-4-4-1-4-4--

(Guitar 1)

-------------------------------------------------------------------
-------------------------------------------------------------------
-------------------------------------------------------------------
-------------------------------------------------------------------
------------------------2--------------------------------2---------
-1-2-4-4--1-2-4-4--1-2-4-4-1-4-4--1-2-4-4--1-2-4-4--1-2-4-4-1-4-4--

(Guitar 1)

-------------------------------------------------------------------
-------------------------------------------------------------------
-------------------------------------------------------------------
-------------------------------------------------------------------
-------------------------------------------------------------------
------4----------------------------------6-------------------------
(Guitar 4)

-------------------------------------------------------------------
-------------------------------------------------------------------
-------------------------------------------------------------------
-------------------------------------------------------------------
------------------------2--------------------------------2---------
-1-2-4-4--1-2-4-4--1-2-4-4-1-4-4--1-2-4-4--1-2-4-4--1-2-4-4-1-4-4--

(Guitar 1)

-------------------------------------------------------------------
-------------------------------------------------------------------
-------------------------------------------------------------------
-------------------------------------------------------------------
-------------------------------------------------------------------
-----7------------------------------------0------------------------
(Guitar 4)

-------------------------------------------------------------------
-------------------------------------------------------------------
-------------------------------------------------------------------
-------------------------------------------------------------------
------------------------2--------------------------------2---------
-1-2-4-4--1-2-4-4--1-2-4-4-1-4-4--1-2-4-4--1-2-4-4--1-2-4-4-1-4-4--

(Guitar 1)

-------------------------------------------------------------------
-------------------------------------------------------------------
-------------------------------------------------------------------
-------------------------------------------------------------------
-------------------------------------------------------------------
------4----------------------------------6-------------------------
(Guitar 4)

-------------------------------------------------------------------
-------------------------------------------------------------------
-------------------------------------------------------------------
-------------------------------------------------------------------
------------------------2--------------------------------2---------
-1-2-4-4--1-2-4-4--1-2-4-4-1-4-4--1-2-4-4--1-2-4-4--1-2-4-4-1-4-4--

(Guitar 1)

-------------------------------------------------------------------
-------------------------------------------------------------------
-------------------------------------------------------------------
-------------------------------------------------------------------
-------------------------------------------------------------------
-----7------------------------------------0------------------------
(Guitar 4)

------------------------------------------------------------------------
------------------------------------------------------------------------
------------------------------------------------------------------------
------------------------------------------------------------------------
--------------------------2----------------------------------2----------
-1-2-4~~---1-2-4~~---1-2-4-4-1-4~~---1-2-4~~---1-2-4~~--1-2-4--4-1-4~~--
(Guitar 1)
Accept the fact that you're second rate. Life is easy for you

------------------------------------------------------------------------
------------------------------------------------------------------------
------------------------------------------------------------------------
------------------------------------------------------------------------
--------------------------2----------------------------------2----------
-1-2-4~~---1-2-4~~---1-2-4-4-1-4~~---1-2-4~~---1-2-4~~--1-2-4--4-1-4~~--
(Guitar 1)
It's all served up on a gold plated plate, and we don't even have to talk to you

------------------------------------------------------------------------
------------------------------------------------------------------------
------------------------------------------------------------------------
------------------------------------------------------------------------
--------------------------2----------------------------------2----------
-1-2-4~~---1-2-4~~---1-2-4-4-1-4~~---1-2-4~~---1-2-4~~--1-2-4--4-1-4~~--
(Guitar 1)
Your face is normal, that's the way your bread, that's the way your gonna stay
Your head
------------------------------------------------------------------------
------------------------------------------------------------------------
------------------------------------------------------------------------
------------------------------------------------------------------------
--------------------------2----------------------------------2----------
-1-2-4~~---1-2-4~~---1-2-4-4-1-4~~---1-2-4~~---1-2-4~~--1-2-4--4-1-4~~--
(Guitar 1)
is firmly nailed to your TV channel but someone else's
finger's on the control panel

CHOURSE
Eb C# C# A#
-----------------------------------------------------------------
-----------------------------------------------------------------
-----------------------------------------------------------------
-------------------------------------------------8---6---6-------
--------------------------4----------------------6---4---4---8---
-3-4-6~~---3-4-6~~---3-4-6-6-4-6~-3-4----------------------4-6---
What 'cha gonna be, what 'cha gonna be Brother? Zero the Hero

Eb C# C# A#
----------------------------------------------------------------
----------------------------------------------------------------
----------------------------------------------------------------
------------------------------------------------8---6---6-------
-------------------------4----------------------6---4---4---8---
-3-4-6-6--3-4-6-6---3-4-6-6-4-6-6-3-4---------------------4-6---

Don't 'cha wanna be, don't 'cha wanna be Brother? Zero the Hero

Eb C# C# A#
----------------------------------------------------------------
----------------------------------------------------------------
----------------------------------------------------------------
------------------------------------------------8---6---6-------
-------------------------4----------------------6---4---4---8---
-3-4-6-6--3-4-6-6---3-4-6-6-4-6-6-3-4---------------------4-6---

When 'ya gonna be, when ya gonna be Brother? Zero the Hero

Eb C# C# A#
----------------------------------------------------------------
----------------------------------------------------------------
----------------------------------------------------------------
------------------------------------------------8---6---6-------
-------------------------4----------------------6---4---4---8---
-3-4-6-6--3-4-6-6---3-4-6-6-4-6-6-3-4---------------------4-6---

Impossibility 'pissabolity mother Really a Hero

-------------------------------------------------------------------
-------------------------------------------------------------------
-------------------------------------------------------------------
-------------------------------------------------------------------
------------------------2--------------------------------2---------
-1-2-4-4--1-2-4-4--1-2-4-4-1-4-4--1-2-4-4--1-2-4-4--1-2-4-4-1-4-4--

(Guitar 1)

-------------------------------------------------------------------
-------------------------------------------------------------------
-------------------------------------------------------------------
-------------------------------------------------------------------
-------------------------------------------------------------------
------4----------------------------------6-------------------------
(Guitar 4)

-------------------------------------------------------------------
-------------------------------------------------------------------
-------------------------------------------------------------------
-------------------------------------------------------------------
------------------------2--------------------------------2---------
-1-2-4-4--1-2-4-4--1-2-4-4-1-4-4--1-2-4-4--1-2-4-4--1-2-4-4-1-4-4--

(Guitar 1)

-------------------------------------------------------------------
-------------------------------------------------------------------
-------------------------------------------------------------------
-------------------------------------------------------------------
-------------------------------------------------------------------
-----7------------------------------------0------------------------
(Guitar 4)

-------------------------------------------------------------------
-------------------------------------------------------------------
-------------------------------------------------------------------
-------------------------------------------------------------------
------------------------2--------------------------------2---------
-1-2-4-4--1-2-4-4--1-2-4-4-1-4-4--1-2-4-4--1-2-4-4--1-2-4-4-1-4-4--

(Guitar 1)

-------------------------------------------------------------------
-------------------------------------------------------------------
-------------------------------------------------------------------
-------------------------------------------------------------------
------------------------2--------------------------------2---------
-1-2-4-4--1-2-4-4--1-2-4-4-1-4-4--1-2-4-4--1-2-4-4--1-2-4-4-1-4-4--

(Guitar 1)

-------------------------------------------------------------------
-------------------------------------------------------------------
-------------------------------------------------------------------
-------------------------------------------------------------------
-------------------------------------------------------------------
------4----------------------------------6-------------------------
(Guitar 4)

-------------------------------------------------------------------
-------------------------------------------------------------------
-------------------------------------------------------------------
-------------------------------------------------------------------
------------------------2--------------------------------2---------
-1-2-4-4--1-2-4-4--1-2-4-4-1-4-4--1-2-4-4--1-2-4-4--1-2-4-4-1-4-4--

(Guitar 1)

-------------------------------------------------------------------
-------------------------------------------------------------------
-------------------------------------------------------------------
-------------------------------------------------------------------
-------------------------------------------------------------------
-----7------------------------------------0------------------------
(Guitar 4)

-------------------------------------------------------------------
-------------------------------------------------------------------
-------------------------------------------------------------------
-------------------------------------------------------------------
------------------------2--------------------------------2---------
-1-2-4-4--1-2-4-4--1-2-4-4-1-4-4--1-2-4-4--1-2-4-4--1-2-4-4-1-4-4--

(Guitar 1)

------------------------------------------------------------------------
------------------------------------------------------------------------
------------------------------------------------------------------------
------------------------------------------------------------------------
--------------------------2----------------------------------2----------
-1-2-4~~---1-2-4~~---1-2-4-4-1-4~~---1-2-4~~---1-2-4~~--1-2-4--4-1-4~~--
(Guitar 1)
You sit there watch it all burn down, it's easy and breezy for ya

------------------------------------------------------------------------
------------------------------------------------------------------------
------------------------------------------------------------------------
------------------------------------------------------------------------
--------------------------2----------------------------------2----------
-1-2-4~~---1-2-4~~---1-2-4-4-1-4~~---1-2-4~~---1-2-4~~--1-2-4--4-1-4~~--
(Guitar 1)
You play your life to a different sound No edge,
No edge you got no knife have you

------------------------------------------------------------------------
------------------------------------------------------------------------
------------------------------------------------------------------------
------------------------------------------------------------------------
--------------------------2----------------------------------2----------
-1-2-4~~---1-2-4~~---1-2-4-4-1-4~~---1-2-4~~---1-2-4~~--1-2-4--4-1-4~~--
(Guitar 1)
Your life's a six lane highway to no-where you're goin'
so fast you're never ever

------------------------------------------------------------------------
------------------------------------------------------------------------
------------------------------------------------------------------------
------------------------------------------------------------------------
--------------------------2----------------------------------2----------
-1-2-4~~---1-2-4~~---1-2-4-4-1-4~~---1-2-4~~---1-2-4~~--1-2-4--4-1-4~~--
(Guitar 1)
gonna get down there where the Heros sit by the river with a magic in
their music as they eat raw liver
CHOURSE
Eb C# C# A#
-----------------------------------------------------------------
-----------------------------------------------------------------
-----------------------------------------------------------------
-------------------------------------------------8---6---6-------
--------------------------4----------------------6---4---4---8---
-3-4-6~~---3-4-6~~---3-4-6-6-4-6~-3-4----------------------4-6---
What 'cha gonna be, what 'cha gonna be Brother? Zero the Hero

Eb C# C# A#
----------------------------------------------------------------
----------------------------------------------------------------
----------------------------------------------------------------
------------------------------------------------8---6---6-------
-------------------------4----------------------6---4---4---8---
-3-4-6-6--3-4-6-6---3-4-6-6-4-6-6-3-4---------------------4-6---

Don't 'cha wanna be, don't 'cha wanna be Brother? Zero the Hero

Eb C# C# A#
----------------------------------------------------------------
----------------------------------------------------------------
----------------------------------------------------------------
------------------------------------------------8---6---6-------
-------------------------4----------------------6---4---4---8---
-3-4-6-6--3-4-6-6---3-4-6-6-4-6-6-3-4---------------------4-6---

When 'ya gonna be, when ya gonna be Brother? Zero the Hero

Eb C# C# A#
----------------------------------------------------------------
----------------------------------------------------------------
----------------------------------------------------------------
------------------------------------------------8---6---6-------
-------------------------4----------------------6---4---4---8---
-3-4-6-6--3-4-6-6---3-4-6-6-4-6-6-3-4---------------------4-6---

Impossibility 'pissabolity mother Really a Hero

--------------------------------------------------------------------
--------------------------------------------------------------------
--------------------------------------------------------------------
--------------------------------------------------------------------
------------------------2--------------------------------2----------
-1-2-4-4--1-2-4-4--1-2-4-4-1-4-4--1-2-4-4--1-2-4-4--1-2-4-4-1-4-4---


------------------------------------------------------------
------------------------------------------------------------
------------------------------------------------------------
------------------------------------------------------------
-------5-4~~~~--------5-4~~~~-------5-4~~~~--------5-4~~~~--
---4-4------------4-4------------4-4------------4-4---------

------------------------------------------------------------
------------------------------------------------------------
------------------------------------------------------------
------------------------------------------------------------
---------7-6~~~~------7-6~~~~--------7-6~~~~--------7-6~~~~-
-4-5-6-6-----------6-6------------6-6------------6-6--------

--------------------------------------------------------------------
--------------------------------------------------------------------
--------------------------------------------------------------------
--------------------------------------------------------------------
------------------------2--------------------------------2----------
-1-2-4-4--1-2-4-4--1-2-4-4-1-4-4--1-2-4-4--1-2-4-4--1-2-4-4-1-4-4---

Тональность:

Это должно быть в ТОП-листе! - Топ-лист композиций



Назад
Рекомендуем посмотреть другие песни исполнителя «Black Sabbath»:

  • Комменты Fb ()
  • Комменты ВК



Добавить в Избранное Браузера
Сохранить здесь Очистить


x

0


+
-

+
-

-

Авторизация





Зарегистрироваться

M

Дата и время

  • 09:34:50
     

Социальные ссылки


Наши приложения

  • Muzbank App Play Market
  • Muzbank Amazon App