MUZBANK



A MOST COMPLETE BANK OF MUSIC INFORMATION

МУЗЫКАЛЬНО-ИНФОРМАЦИОННЫЙ БАНК





BBlack Sabbath • The Straightner (аккорды и текст - chords & lyrics)


363

Print

Видео «The Straightner (Black Sabbath)»

Видео клипы к песне подбираются автоматически сайтом youtube. Возможны некоторые несоответствия клипов песне.

↑ Спрятать рекламу ↑





E|-----15-18p15----------------------------------------------------------------|
B|18^20--------18p15--18p15----------------------------------------------------|
G|------------------17-----17-17p15--177p15------------------------------------|
D|---------------------------------17------17-17p15--17p15--17p15--------------|
A|-------------------------------------------------17-----17-----17p15h17p15⁄13|
E|-----------------------------------------------------------------------------|
(Guitar 1 with slight delay)

E|------------------------------------------|
B|--2--3--5--5--5-3-2----3--5--7--5--3--3h5-|
G|------------------------------------------|
D|5--5--5--5--5--------5--5--5--5--5--55----|
A|------------------------------------------|
E|------------------------------------------|
(Guitar 2 plus Bass and Keyboard)

E|---------------------------------------------------------15-(15h18p15 tr~~)-|
B|----------------------------20~⁄18-200~⁄18-18-20~⁄18-20~~-------------------|
G|----------------------------------------------------------------------------|
D|----------------------------------------------------------------------------|
A|13h15p13h15p13--13~-15-13---------------------------------------------------|
E|--------------15------------------------------------------------------------|
(Guitar 1 with slight delay)

E|------------------------------------------|
B|--2--3--5--5--5-3-2----3--5--7--5--3--3h5-|
G|------------------------------------------|
D|5--5--5--5--5--------5--5--5--5--5--55----|
A|------------------------------------------|
E|------------------------------------------|
(Guitar 2 plus Bass and Keyboard)

E|15h18p15--15h18p15--15h18p15--15-(15hh18p15 tr~~~)-15h18p15---15h18p15---|
B|--------18--------18--------18-----------------------------18---------18-|
G|-------------------------------------------------------------------------|
D|-------------------------------------------------------------------------|
A|-------------------------------------------------------------------------|
E|-------------------------------------------------------------------------|
(Guitar 1 with slight delay)

E|------------------------------------------|
B|--2--3--5--5--5-3-2----3--5--7--5--3--3h5-|
G|------------------------------------------|
D|5--5--5--5--5--------5--5--5--5--5--55----|
A|------------------------------------------|
E|------------------------------------------|
(Guitar 2 plus Bass and Keyboard)

E|-----15-18p15-----------------------------------------------------------|
B|18^20--------18p15--18p15-----------------------------------------------|
G|------------------17-----17-(17p15 trr~~)-------------------------------|
D|-----------------------------------------(15h17p15 tr~~)----------------|
A|--------------------------------------------------------(15h17p15 tr~~)-|
E|------------------------------------------------------------------------|
(Guitar 1 with slight delay)

E|------------------------------------------|
B|--2--3--5--5--5-3-2----3--5--7--5--3--3h5-|
G|------------------------------------------|
D|5--5--5--5--5--------5--5--5--5--5--55----|
A|------------------------------------------|
E|------------------------------------------|
(Guitar 2 plus Bass and Keyboard)

E|----------------------------------------------------------18-20-18h20p18---|
B|-------15--------------------------------15h18-15h18/20-20--------------20-|
G|-------15--------------------15h17-155h17----------------------------------|
D|17p15----(15h17p15 tr~~)---17----------------------------------------------|
A|-----17------------------17------------------------------------------------|
E|---------------------------------------------------------------------------|
(Guitar 1 with slight delay)

E|------------------------------------------|
B|--2--3--5--5--5-3-2----3--5--7--5--3--3h5-|
G|------------------------------------------|
D|5--5--5--5--5--------5--5--5--5--5--55----|
A|------------------------------------------|
E|------------------------------------------|
(Guitar 2 plus Bass and Keyboard)

E|18-20-18-18h20p18--18-20-18-18h20p18---18-20-18-18h20p18--18-20-18-18h20p18--|
B|-----------------20-----------------220-----------------20-----------------20|
G|-----------------------------------------------------------------------------|
D|-----------------------------------------------------------------------------|
A|-----------------------------------------------------------------------------|
E|-----------------------------------------------------------------------------|
(Guitar 1 with slight delay)

E|------------------------------------------|
B|--2--3--5--5--5-3-2----3--5--7--5--3--3h5-|
G|------------------------------------------|
D|5--5--5--5--5--------5--5--5--5--5--55----|
A|------------------------------------------|
E|------------------------------------------|
(Guitar 2 plus Bass and Keyboard)

18-20/21-18h20p18--18-20/21-18h20p18---18-20/21-18h20p18--|
-----------------20-----------------200-------------------|
----------------------------------------------------------|
----------------------------------------------------------|
----------------------------------------------------------|
----------------------------------------------------------|

E|-------------------------------|
B|-20----18^(20s`18)-18^(20s`18)-|
G|----17-------------------------|
D|-------------------------------|
A|-------------------------------|
E|-------------------------------|
(Guitar 1 with slight delay)

E|------------------------------------------|
B|--2--3--5--5--5-3-2----3--5--7--5--3--3h5-|
G|------------------------------------------|
D|5--5--5--5--5--------5--5--5--5--5--55----|
A|------------------------------------------|
E|------------------------------------------|
(Guitar 2 plus Bass and Keyboard)

E|-----15-18p15--18p15--------------------------------------------------------|
B|15h18--------18-----18-18p15--15h18p115--15h18p15---------------------------|
G|----------------------------17---------17--------17-15-15h17p15--15h17p15---|
D|---------------------------------------------------------------17--------17-|
A|----------------------------------------------------------------------------|
E|----------------------------------------------------------------------------|
(Guitar 1 with slight delay)

E|------------------------------------------|
B|--2--3--5--5--5-3-2----3--5--7--5--3--3h5-|
G|------------------------------------------|
D|5--5--5--5--5--------5--5--5--5--5--55----|
A|------------------------------------------|
E|------------------------------------------|
(Guitar 2 plus Bass and Keyboard)

E|-----------------------------------------------------------------------------|
B|-----------------------------------------------------------------------------|
G|-----15-17-17^(19s`17)-17^(19s`17)-177^(19s`17)-17^(19s`17)-(15h17p15 tr~)---|
D|15h17---------------------------------------------------------------------17-|
A|-----------------------------------------------------------------------------|
E|-----------------------------------------------------------------------------|
(Guitar 1 with slight delay)
7:06

E|------------------------------------------|
B|--2--3--5--5--5-3-2----3--5--7--5--3--3h5-|
G|------------------------------------------|
D|5--5--5--5--5--------5--5--5--5--5--55----|
A|------------------------------------------|
E|------------------------------------------|
(Guitar 2 plus Bass and Keyboard)

E|--------------------------------------------------------------------------|
B|--------------------------------------------------------------------------|
G|(15h17p15 tr~)--17^(19s`17)-17^(19s`117)-17^(19s`17)--(15h17p15 tr~)-15~~-|
D|--------------17----------------------------------------------------------|
A|--------------------------------------------------------------------------|
E|--------------------------------------------------------------------------|
(Guitar 1 with slight delay)

E|------------------------------------------|
B|--2--3--5--5--5-3-2----3--5--7--5--3--3h5-|
G|------------------------------------------|
D|5--5--5--5--5--------5--5--5--5--5--55----|
A|------------------------------------------|
E|------------------------------------------|
(Guitar 2 plus Bass and Keyboard)

E|------15-15h18p15--15h18p15--15h18p155--15h18p15--15h18p15-------------------|
B|-18^20-----------18--------18---------18--------18--------18-15(15h18p15 tr~)|
G|-----------------------------------------------------------------------------|
D|-----------------------------------------------------------------------------|
A|-----------------------------------------------------------------------------|
E|-----------------------------------------------------------------------------|
(Guitar 1 with slight delay)

E|------------------------------------------|
B|--2--3--5--5--5-3-2----3--5--7--5--3--3h5-|
G|------------------------------------------|
D|5--5--5--5--5--------5--5--5--5--5--55----|
A|------------------------------------------|
E|------------------------------------------|
(Guitar 2 plus Bass and Keyboard)

E|---------------------------------------|
B|18^(20~s`18)-18^(20~s`18)-18^(20s`18))-|
G|---------------------------------------|
D|---------------------------------------|
A|---------------------------------------|
E|---------------------------------------|

E|------20------------------------------|
B|-18^20--18p15--18p15------------------|
G|-------------17-----17p15--17p15------|
D|-------------------------17-----17p15-|
A|--------------------------------------|
E|--------------------------------------|
(Guitar 1 with slight delay)

E|------------------------------------------|
B|--2--3--5--5--5-3-2----3--5--7--5--3--3h5-|
G|------------------------------------------|
D|5--5--5--5--5--------5--5--5--5--5--55----|
A|------------------------------------------|
E|------------------------------------------|
(Guitar 2 plus Bass and Keyboard)

E|-----------------------------------|
B|-------15--------------------------|
G|-----15--17p15-17p15--17p15--15h17-|
D|17p15---------------17-----17------|
A|-----------------------------------|
E|-----------------------------------|

E|------------------------18p15--18p15--18p15-|
B|15hh18p15h18-18^20-18^20-----18-----18------|
G|--------------------------------------------|
D|--------------------------------------------|
A|--------------------------------------------|
E|--------------------------------------------|
(Guitar 1 with slight delay)

E|------------------------------------------|
B|--2--3--5--5--5-3-2----3--5--7--5--3--3h5-|
G|------------------------------------------|
D|5--5--5--5--5--------5--5--5--5--5--55----|
A|------------------------------------------|
E|------------------------------------------|
(Guitar 2 plus Bass and Keyboard)

E|--18p15--18p15--18p15-18p15--18p15--118p15---------------------------|
B|18-----18-----18-----------18-----18------18p15h18p15--18p15h18p15---|
G|-----------------------------------------------------17-----------17-|
D|---------------------------------------------------------------------|
A|---------------------------------------------------------------------|
E|---------------------------------------------------------------------|
(Guitar 1 with slight delay) {7:27 Begin Coda}

E|------------------------------------------|
B|--2--3--5--5--5-3-2----3--5--7--5--3--3h5-|
G|------------------------------------------|
D|5--5--5--5--5--------5--5--5--5--5--55----|
A|------------------------------------------|
E|------------------------------------------|
(Guitar 2 plus Bass and Keyboard)

E|---------------------------------------------------------|
B|15 (18p15h18 tr~~~~~~~~~)-----15 (18pp15h18 tr~~~~~~~~~)-|
G|-------------------------17-17---------------------------|
D|---------------------------------------------------------|
A|---------------------------------------------------------|
E|---------------------------------------------------------|

E|-------------------------------|
B|-----18^20-18p15-18p15-18p15---|
G|17-17-----------------------17-|
D|-------------------------------|
A|-------------------------------|
E|-------------------------------|
(Guitar 1 with slight delay)

E|------------------------------------------|
B|--2--3--5--5--5-3-2----3--5--7--5--3--3h5-|
G|------------------------------------------|
D|5--5--5--5--5--------5--5--5--5--5--55----|
A|------------------------------------------|
E|------------------------------------------|
(Guitar 2 plus Bass and Keyboard)

E|------------------------------------------|
B|-------15---------------------------------|
G|17p15----17p15-17p15-------------------15-|
D|-----17-------------17p15--15h17p15h117---|
A|-------------------------17---------------|
E|------------------------------------------|

E|----------------------------------------------|
B|--------15------------------------------15h18-|
G|-17p15----17p15h17p15h17p15--------15h17------|
D|------17-------------------17p15h17-----------|
A|----------------------------------------------|
E|----------------------------------------------|
(Guitar 1 with slight delay)

E|------------------------------------------|
B|--2--3--5--5--5-3-2----3--5--7--5--3--3h5-|
G|------------------------------------------|
D|5--5--5--5--5--------5--5--5--5--5--55----|
A|------------------------------------------|
E|------------------------------------------|
(Guitar 2 plus Bass and Keyboard)

E|---15-(18p15h18 tr~~~~~)-15-18^(20)-118-20/21-|
B|115-------------------------------------------|
G|----------------------------------------------|
D|----------------------------------------------|
A|----------------------------------------------|
E|----------------------------------------------|

E|-18h20p18--18-20/21-18h20p18---|
B|---------20-----------------20-|
G|-------------------------------|
D|-------------------------------|
A|-------------------------------|
E|-------------------------------|
(Guitar 1 with slight delay)

E|------------------------------------------|
B|--2--3--5--5--5-3-2----3--5--7--5--3--3h5-|
G|------------------------------------------|
D|5--5--5--5--5--------5--5--5--5--5--55----|
A|------------------------------------------|
E|------------------------------------------|
(Guitar 2 plus Bass and Keyboard)

E|18-20/21-18h20p18-----|
B|-----------------20---|
G|----------------------|
D|----------------------|
A|----------------------|
E|----------------------|

E|-(18h21p18 tr~~~~~)-----------------20----------15------|
B|-------------------(18h20p18 tr~~~~)----------15--18p15-|
G|---------------------------------------17^(19)----------|
D|--------------------------------------------------------|
A|--------------------------------------------------------|
E|--------------------------------------------------------|
(Guitar 1 with slight delay)

E|------------------------------------------|
B|--2--3--5--5--5-3-2----3--5--7--5--3--3h5-|
G|------------------------------------------|
D|5--5--5--5--5--------5--5--5--5--5--55----|
A|------------------------------------------|
E|------------------------------------------|
(Guitar 2 plus Bass and Keyboard)

E|------------------------------------------|
B|18^(20)-18p15-18p15-----------------------|
G|-------------------17p15-17p15-17p15---15-|
D|------------------------------------117---|
A|------------------------------------------|
E|------------------------------------------|

E|---------------------------------------15-|
B|------------------------------------------|
G|-17p15--17p15--17p15--17p15--15-17^(19)---|
D|------17-----17-----17-----17-------------|
A|------------------------------------------|
E|------------------------------------------|
(Guitar 1 with slight delay)

E|------------------------------------------|
B|--2--3--5--5--5-3-2----3--5--7--5--3--3h5-|
G|------------------------------------------|
D|5--5--5--5--5--------5--5--5--5--5--55----|
A|------------------------------------------|
E|------------------------------------------|
(Guitar 2 plus Bass and Keyboard)

E|-------15----15------15------15--18p115--18p15--15-18p15---|
B|---------17^(19)-17^(19)-17^(19)-------18-----18--------18-|
G|17^(19)----------------------------------------------------|
D|-----------------------------------------------------------|
A|-----------------------------------------------------------|
E|-----------------------------------------------------------|

E|-15-18p15---15-18p15---|
B|---------18---------18-|
G|-----------------------|
D|-----------------------|
A|-----------------------|
E|-----------------------|
(Guitar 1 with slight delay)

E|------------------------------------------|
B|--2--3--5--5--5-3-2----3--5--7--5--3--3h5-|
G|------------------------------------------|
D|5--5--5--5--5--------5--5--5--5--5--55----|
A|------------------------------------------|
E|------------------------------------------|
(Guitar 2 plus Bass and Keyboard)

E|-------15-15--15----15------15------115------15------15------15-----15--|
B|18^(20)-----18--18^(20)-18^(20)-18^(220)-18^(20)-18^(20)-18^(20)-18(20)-|
G|------------------------------------------------------------------------|
D|------------------------------------------------------------------------|
A|------------------------------------------------------------------------|
E|------------------------------------------------------------------------|
(Guitar 1 with slight delay) 7:59

E|------------------------------------------|
B|--2--3--5--5--5-3-2----3--5--7--5--3--3h5-|
G|------------------------------------------|
D|5--5--5--5--5--------5--5--5--5--5--55----|
A|------------------------------------------|
E|------------------------------------------|
(Guitar 2 plus Bass and Keyboard)

Тональность:

Это должно быть в ТОП-листе! - Топ-лист композиций



Назад
Рекомендуем посмотреть другие песни исполнителя «Black Sabbath»:

  • Комменты Fb ()
  • Комменты ВК



Добавить в Избранное Браузера
Сохранить здесь Очистить


x

0


+
-

+
-

-

Авторизация





Зарегистрироваться

M

Дата и время

  • 12:08:57
     

Социальные ссылки


Наши приложения

  • Muzbank App Play Market
  • Muzbank Amazon App