MUZBANK


МУЗЫКАЛЬНО-ИНФОРМАЦИОННЫЙ БАНК





BBlack Sabbath • The Warning (аккорды и текст - chords & lyrics)


476

Print

Видео «The Warning (Black Sabbath)»

Видео клипы к песне подбираются автоматически сайтом youtube. Возможны некоторые несоответствия клипов песне.

↑ Спрятать рекламу ↑






|--------------------------------------7h9-------------------
|----------------------------------7h9--------------7h9------
|-5h7--5---7-------7---5--7----------------7------------5--7-
|------------------------------------------------------------

|---------------------7h9----------------------------------
|-----------------7h9----------7h9-------------------------
|-7----5--7---------------7--------5--7----and so on-------
|----------------------------------------------------------
0:57
Geezer thows in different E and D octaves
||-9⁄---------------------------------------------------5^-------||
||----7--5h7--7---7--7--5-------7--5h7--7--7--7-7-7-5-7----------||
||------------------------7-5-7----------------------------------||
||---------------------------------------------------------------||
Geezer grooves on these notes..he throws in other stuff though
||---------------------------------------------------------------||
||--5h7--5h7--5h7---5h7--7-5--------------------------5-7-7-5---5||
||---------------------------7-5-7-----------------/7---------7--||
||----------------------------------5----5-----5-----------------||
1:20
|---------------------------------------5^-----------------
|-5h7--7--7--7-5-------5h7--7--7--7-5----------------------
|----------------7-5-7----------------7--------------------
|----------------------------------------------------------
2:10
1:38 For guitar solo Geezer holds
||----------------------------------||-----------------------------
||----------------------------------||-----------------------------
||--5----------3---------8------5---||-5-5-5-5-5-5-5-5-5-3-5-5-5-5-
||--------5-------------------------||-----------------------------
E and D, but then start doing some groovin off of E and D pentonics
-------------------------------------------------------------------
-------------------------------------3-----------------------------
-5-5-5-5-5-5-5-3--5--5-5-5-5-5-5-5-5---5-5-5-5-5-5-5-3-5-5-5-5-5-5-
-------------------------------------------------------------------
thats pretty much it..its just a long jam, kinda groove through it
...and off to Warning. /=slide up h=hammer-on




this is basically the little blues-thing done from
about 3:45 to 7:00, and also at the end of the song


|-----------------------------------------------------------
|-----------------------------------------------------------
|-------8-----------------------8---------------------------
|-10-10----10-10-8-8⁄-----10-10----10-10-8-8⁄---------------


|----------------------------------------------------------------
|--------------------------------------------------------10-12---
|-8-8-8-8--8-8--8-8--8-9-10-10-10-10--10-10-10-10--10-12---------
|----------------------------------------------------------------


|------------------------------------|----------------------
|-----3----3----------------3----3---|-5--3-------------------
|-5-5----5---5---3-4----5-5----5---5-|-------5-3--------------
|--------------5---------------------|----------------------


|-----------------------------------------------------------
|-------8----8----10-8--------------8----8------------------
|-10-10---10---10------10-8---10-10---10---10----3-4--------
|----------------------------------------------5------------

7:03 Solo
||--------------------------
||--------------------------
||-5-5-5-5-5-5-5-5-5-5-5-5-5
||--------------------------

-------------------------------------------------------------
-------------------------------------------------------------
-5-5-5-5-5-5-5-5-5-5-5-5-5-5-5-5-5-5-5-5-5-5-5-5-5-5-5-5-5-5-
-------------------------------------------------------------

-------------------------------------------------------------
-------------------------------------------------------------
-5-5-5-5---5---7-7-7-7-7-7-7-7-7-7-7-7-7-7-7-7-7-7-7-7-7-7-7-
-------------------------------------------------------------

-------------------------------------------------------------
-------------------------------------------------------------
7-7-7-7-7--5⁄--3-5-7-7-7-7-7-7-7-7-7-7-7-7-7-7-7-7--5⁄--3-5-7
-------------------------------------------------------------
Groove off these notes........................
-------------------------------------------------------------
-------------------------------9----5-----7------------------
-7-7-7-7-7-7-7-7-7-7-7-7-7--7-----7----7-----7--5--7--9--7---
-----------------------------------------------------------5-
Bluesy Part
----------------||-------------------------------------------
----5-----------||-----5-----5-----5-7-5--------5-----5-----5
-7----7-----7---||-5h7---5h7---5h7-------7--5h7---5h7---5h7--
--------9-------||-------------------------------------------
Just groove around these notes
---------|-------------------------------------------|-------
-7--5----|-----------------5------------7b(9)-7-5----|-------
------7--|-7--7--5-----5-7----7--5---5------------7--|-7-7-7-
---------|----------7--------------7-----------------|-------
just keep groovin...
---------------------------------------------------------||--
---------------------------------------------------------||--
-7-7-7-7-7-----5-6-7-7-7-7-7-7-7-7-7-----5-6-7-7-7-7-7-7-||--
-----------7-8-----------------------7-8-----------------||--
groove on this
------------------------------------------||---------------||
-----------------5-----------7b(9)-7-5----||-guitar-riffs--||
-7--7--5-----5-7----7-5---5------------7--||---------------||
----------5-------------7-----------------||---------------||
Keep groovin...
-------------------------------9-7-------------------5-------
-------------------7-5-------------9-------------5h7---------
-7-5-7---5-6-7-5-7-----5-7-5-7--------5--5--5--7-------3-3-3-
-------7-----------------------------------------------------

-------------------------------------|-----------------------
------5------------------5-----------|-----------------------
-/5-7---7-5-3-2-2-2-/5-7---7-5-3-3-3-|-5-5-3--3-------------3
-------------------------------------|-----------5-3--3-4-5--

-------------------|---------------||This songs just a jam
-------------------|-back to vocal-||to fill CD space so they
--5-5-3--3---------|-----riffs-----||just do alot of groovin,
-----------5-3-4-5-|---------------||just go along with it.
/=slide up b=bend h=hammer-on
⁄=slide down ( )=bend to p=pull-off
8:23
|----------------------------------------------------------
|---------5-----5-----5-7^-7-5----5----5----5--7^-7-5------
|-------7-----7-----7-----------7----7----7----------------
|-/7⁄------------------------------------------------------

Solo:8:35
|---------------------------------9-9-7-7---7-9-9-77-------
|---------------------7^-7-5--------------9----------9-9-7-
|-7-7-5---5-7-7-7-5----------7--7--------------------------
|-------7-----------7--------------------------------------

|--------------------9-9-7-7-------------------------9-9-9-9-
|-----5-7-7^-7-5-------------7-------------5-----5-7---------
|-7-7------------7-7-----------7-7-5---------5-7-------------
|------------------------------------7-5-7-------------------keep groovin

|----------------------------------------------------------
|-------------------------------5--------------------------
|-7-7-7-7-7-7-7-7-7-7-7-7-5-------7-7-7-7-7-7-7-and so on--
|---------------------------7-5----------------------------

Solo:9:23
|----9-9-7-7----------------------9-9-7-7------------------
|------------9-9---5-7-7^-7-5-------------9-9---5-7-7^-7-5-
|-77-------------7------------7-7-------------7------------
|----------------------------------------------------------

12:50
|----------------------------------------------------------
|----------7^-7-5---------5-7-5---------7^-7-5-------------
|-7-7-5-7---------7-7-5-7-------7-7-5-7--------------------
|----------------------------------------------------------
12:58
|------------7-5---7-5-------------5-3---5-3---------------
|----------7-----7-----7-5-------5-----5-----5-3-----------
|-5-5-5--5-----------------3-3-3---------------------------
|------------------------------------------------

|----------------------------------------------------------
|-----------------3-5-3------------------------------------
|-5-5-3-------3-5-------back to blues prograssion---------
|-------5-3-5----------------------------------------------

Тональность:

Это должно быть в ТОП-листе! - Топ-лист композиций



Назад
Рекомендуем посмотреть другие песни исполнителя «Black Sabbath»:

  • Комменты Fb ()
  • Комменты ВК



Добавить в Избранное Браузера
Сохранить здесь Очистить


x

0


+
-

+
-

-

Авторизация





Зарегистрироваться

M

Дата и время

  • 20:26:00
     

Социальные ссылки


Наши приложения

  • Muzbank App Play Market
  • Muzbank Amazon App