MUZBANK



A MOST COMPLETE BANK OF MUSIC INFORMATION

МУЗЫКАЛЬНО-ИНФОРМАЦИОННЫЙ БАНК





BBlack Sabbath • When Death Calls (аккорды и текст - chords & lyrics)


332

Print

Видео «When Death Calls (Black Sabbath)»

Видео клипы к песне подбираются автоматически сайтом youtube. Возможны некоторые несоответствия клипов песне.

↑ Спрятать рекламу ↑






|----------------------------------------------------------
|-------------------------------------------------5-5p4----
|-----4---5---4---5-----------4-------4-----------6-6p4----
|---2---2---2---2---------5-------5------------------------
|-0---------------------5---5---5---5---- over and over----
|---------------------3------------------------------------

"misguided mortats..."
|---------5-----5-------0---------------5------------------
|-------5---5---------1---1-----------5---5---6------------
|-----5-------5-----2-------2-------7-------7---7----------
|---7-------------3-----------3-2-0----------------8-------
|-0------------------------------------------------8-------
|--------------------------------------------------6-------
"when death calls..."
|----------------------------------------------------------
|----------------------------------------------------------
|---------------------------------12-----------------------
|-7-------7--7---(7)-10/12-10--9--12--10--9/10--7----------
|-7-------7--7---(7)-10/12-10--9--10--10--9/10--7----------
|-5-------5--5---(5)--8/10--8--7-------8--7/-8--5----------


|-----------------0---------|---------------------------------
|---------------0---0-8-----|---------------------------------
|-------------5---------5---|-----9-⁄-7-------------4/5⁄4-----
|-----5h7---7---------------|-------------9---------------5---
|-5h7-----0-----------------|-------------------------------0-
|---------------------------|---------------------------------
| |
|--------------------0------|------------0-----------------
|----------------0----------|----------0-----0-------------
|--------------5---5--------|--------2-----2---------------
|------------7--------------|------0-----------------------
|---------0-----------------|----2-------------------------
|---------------------------|------------------------------

"when death calls..."
|----------------------------------------------------------
|----------------------------------------------------------
|---------------------------------12-----------------------
|-7-------7--7---(7)-10/12-10--9--12--10--9/10--7----------
|-7-------7--7---(7)-10/12-10--9--10--10--9/10--7----------
|-5-------5--5---(5)--8/10--8--7-------8--7/-8--5----------

|----------------------------------------------------------
|----------------------------------------------------------
|------------------------------10--------------------------
|-7--/10-9-8-------7--/10-9-8--10--------------------------
|-7--/10-9-8-------7--/10-9-8---8--------------------------
|-5--/-8-7-6-------5--/-8-7-6------------------------------

|---------------------------------------------------------------
|---------------------------------------------------------------
|-----5-----9-----7-----12⁄-----5⁄⁄-3---------------------------
|-----5-----9-----7-----12⁄-----5⁄⁄-3-------2h3p0---0h2p0-------
|-0-0---0-0---0-0---0-0-----0-0-----3-------------3-------3-2-0-
|----------------------------------(1)--------------------------

|----------------------------------------------------------
|----------------------------------------------------------
|-9--10--9--------10-----9--10--9--------10--9-/12-11-10---
|-9--10--9--------10-----9--10--9--------10--9-/12-11-10---
|-7---8--7--7p5----8-----7---8--7--7p5----8--7-/10--9--8---
|--------------(8)--------------------(8)------------------

Solo:
|-------------------------12-----------------15----15------
|-10----12----10--12--13--15^p12-15^-15--/17----17---------
|-12^---14^---12^-14^-15^----------------------------------
|----------------------------------------------------------
|----------------------------------------------------------
|----------------------------------------------------------

|-17------17------17------17------17---20--19--17-15h17p15-
|---17-20^--17-20^--17-20^--17-20^--17---17--17------------
|----------------------------------------------------------
|----------------------------------------------------------
|----------------------------------------------------------
|----------------------------------------------------------

|---15------------------------------------12---12---17-----
|-17--17-15h17p15--13h15p13-12------------15^----x--20^----
|----------------16------------14~~---/-⁄---------x--------
|----------------------------------------------------------
|----------------------------------------------------------
|----------------------------------------------------------

|-20^-20-19--20-22-22^^^22------------20------17-----------
|--------------------------20^-20^-20^--20^-17--20---------
|----------------------------------------------------------
|----------------------------------------------------------
|----------------------------------------------------------
|----------------------------------------------------------

|----------------------------------------------------------
|-15^p13-13-12---12-12-------------------------------------
|--------------14-----14-12-14-14-12---12------------------
|------------------------------------14--14-12---14-12-14--
|----------------------------------------------14----------
|----------------------------------------------------------

|---------------------12--13--12-----12--13--12------13------
|------15^p13-15p13---15^-16^-15^----15^-16^-15^-----16^-----
|-12-14------------14-----------------------------/-/--------
|------------------------------------------------------------
|------------------------------------------------------------
|------------------------------------------------------------

|-12--15--14--13-------
|-15^-18^-17^-16^------
|----------------------
|----------------------
|----------------------
|----------------------

Тональность:

Это должно быть в ТОП-листе! - Топ-лист композиций



Назад
Рекомендуем посмотреть другие песни исполнителя «Black Sabbath»:

  • Комменты Fb ()
  • Комменты ВК



Добавить в Избранное Браузера
Сохранить здесь Очистить


x

0


+
-

+
-

-

Авторизация





Зарегистрироваться

M

Дата и время

  • 15:43:15
     

Социальные ссылки


Наши приложения

  • Muzbank App Play Market
  • Muzbank Amazon App