MUZBANK



A MOST COMPLETE BANK OF MUSIC INFORMATION

МУЗЫКАЛЬНО-ИНФОРМАЦИОННЫЙ БАНК





BBlack Sabbath • You Won`T Change Me (аккорды и текст - chords & lyrics)


427

Print

Видео «You Won`T Change Me (Black Sabbath)»

Видео клипы к песне подбираются автоматически сайтом youtube. Возможны некоторые несоответствия клипов песне.

↑ Спрятать рекламу ↑






-----------------------------------------------------|
-----------------------------------------------------|
-----------------------------------------------------|
----------------------------------------------5~~~~~-|
-5----4----3----3p0-------5----4-----3----3p0--------|
--------------------2~~~-----------------------------|

-----------------------------------------------------|
-----------------------------------------------------|
-----------------------------------------------------|
----------------------------------------------5~~~~~-|
-5----4----3----3p0-------5----4-----3----3p0--------|
--------------------2~~~-----------------------------|

-----------------------------------------------------|
-----------------------------------------------------|
-----------------------------------------------------|
----------------------------------------------5~~~~~-|
-5----4----3----3p0-------5----4-----3----3p0--------|
--------------------2~~~-----------------------------|

-----------------------------------------------------|
-----------------------------------------------------|
-----------------------------------------------------|
----------------------------------------------5~~~~~-|
-5----4----3----3p0-------5----4-----3----3p0--------|
--------------------2~~~-----------------------------|

--------------------------------|
------6------6--------6------6--|
-6--5--5--6-5-5--6--5--5--6-5-5-|
--------------------------------|
--------------------------------|
--------------------------------|
{Keyboard adapted for Guitar}

-------------------------------------------------------------------------------|
-------------------------------------------------------------------------------|
-------------------------------------------------------------------------------|
-3/10-------------------10⁄6------------------6⁄3-------------------------3/10-|
-3/10-------------------10⁄6------------------6⁄3-------------------------3/10-|
-1/-8--------------------8⁄4------------------4⁄1-------------------------1/-8-|
(Guitar 1)
I'm just a man and I am what I am, yeah Nobody will ever change my ways

----------------------------------------------------------------|
----------------------------------------------------------------|
----------------------------------------------------------------|
------3/10-------------------10⁄6---------------------------6⁄3-|
------3/10-------------------10⁄6---------------------------6⁄3-|
------1/-8--------------------8⁄4---------------------------4⁄1-|
(Guitar 1)
I don't need money and I don't need your lies, yeah.
I only live to live for today!

------------------------------13~~~----------------------------------------|
-8-5------------------------------------------8-5~~(⁄3)--------------------|
----5~---------------------------------------------------------------------|
-------5/10~--------------------------------------------------(7⁄)-2p0-----|
-----------------------------------------------------------------------3~~-|
---------------------------------------------------------------------------|
(Guitar 2)

CHOURSE
---------------------------------------------------------|
---------------------------------------------------------|
---------------------------------------------------------|
----------13-------------------------------xx--6--6-6--6-|
----6-5-6-13-------------------------------xx--6--6-6--6-|
-6-8-8----11-------------------------------xx--4--4-4--4-|
(Guitar 1)
'Cause I'd like to start things over with you

----------------------------------------------------------------------|
--------------------------------------------------------13⁄-11-13~~~~-|
----------------------------------------------------------------------|
----------------------------------------------------------------------|
----------------------------------------------------------------------|
----------------------------------------------------------------------|
(Guitar 2)

---------------------------------------------------|
---------------------------------------------------|
---------------------------------------------------|
-6⁄3------------------------3/10---------10---8--6-|
-6⁄3-{Strum Chord}----------3/10-{Strum}-10---8--6-|
-4⁄1------------------------1/-8----------8---6--4-|
(Guitar 1)
I wanna hear the things you say today

-----------------------------------------------------------------|
------------------------------------13-11--11--------------------|
-----------------------------------------12--12⁄10-8-10p8--------|
---------------------------------------------------------10-(⁄3)-|
-----------------------------------------------------------------|
-----------------------------------------------------------------|
(Guitar 2)

------------------------------------------------------------------|
------------------------------------------------------------------|
------------------------------------------------------------------|
-6---6---6---6⁄3---3---3---3---3/10---10---10⁄5---5---5---5--4/10-|
-6---6---6---6⁄3---3---3---3---3/10---10---10⁄5---5---5---5--4/10-|
-4---4---4---4⁄1---1---1---1---1/-8----8----8⁄3---3---3---3--2/-8-|
(Guitar 1)
Although you won't change me anyway, no no way!

-------------------------------------------5-----------------|
------------------------------------------5-8p5-7------------|
-------------------------------------5^(7)-----7-7p5---------|
----------------------------------------------------5~~~~~~~-|
-------------------------------------------------------------|
-------------------------------------------------------------|
(Guitar 2)

-----------------------------------------
------6------6--------6------6-----------
-6--5--5--6-5-5--6--5--5--6-5-5----------
-----------------------------------------
-----------------------------------------
-----------------------------------------
{Keyboard adapted for Guitar}

-------------------------------------------------------------------------------|
-------------------------------------------------------------------------------|
-------------------------------------------------------------------------------|
-3/10-------------------10⁄6------------------6⁄3-------------------------3/10-|
-3/10-------------------10⁄6------------------6⁄3-------------------------3/10-|
-1/-8--------------------8⁄4------------------4⁄1-------------------------1/-8-|
(Guitar 1)
I wish you'd come and see me. I'd like to hold you. I wanna set my mind all free

----------------------------------------------------------------|
----------------------------------------------------------------|
----------------------------------------------------------------|
------3/10-------------------10⁄6---------------------------6⁄3-|
------3/10-------------------10⁄6---------------------------6⁄3-|
------1/-8--------------------8⁄4---------------------------4⁄1-|
(Guitar 1)
You understand me woman, you give me time, yeah But I don't need no sympathy

----------------------------------13~~~~--------------------8-----|
-------------------------------------------------------------10~~-|
------------10^(12)-8---------------------------------------------|
-----8--8h10---------10~------------------------------------------|
-8h10-10----------------------------------------------------------|
------------------------------------------------------------------|
(Guitar 2)

CHOURSE
---------------------------------------------------------|
---------------------------------------------------------|
---------------------------------------------------------|
----------13-------------------------------xx--6--6-6--6-|
----6-5-6-13-------------------------------xx--6--6-6--6-|
-6-8-8----11-------------------------------xx--4--4-4--4-|
(Guitar 1)
Still I wonder what it's like to be loved

----------------------------------------------------------------------|
--------------------------------------------------------13⁄-11-13~~~~-|
----------------------------------------------------------------------|
----------------------------------------------------------------------|
----------------------------------------------------------------------|
----------------------------------------------------------------------|
(Guitar 2)

---------------------------------------------------|
---------------------------------------------------|
---------------------------------------------------|
-6⁄3------------------------3/10---------10---8--6-|
-6⁄3-{Strum Chord}----------3/10-{Strum}-10---8--6-|
-4⁄1------------------------1/-8----------8---6--4-|
(Guitar 1)
Instead of hiding in myself

-----------------------------------------------------------------|
------------------------------------13-11--11--------------------|
-----------------------------------------12--12⁄10-8-10p8--------|
---------------------------------------------------------10-(⁄3)-|
-----------------------------------------------------------------|
-----------------------------------------------------------------|
(Guitar 2)

------------------------------------------------------------------------------|
------------------------------------------------------------------------------|
------------------------------------------------------------------------------|
-6---6---6---6⁄3---3---3---3---3/10---10-10⁄5-5-5-5-4/10-10-10-10-10-10-10-10-|
-6---6---6---6⁄3---3---3---3---3/10---10-10⁄5-5-5-5-4/10-10-10-10-10-10-10-10-|
-4---4---4---4⁄1---1---1---1---1/-8----8--8⁄3-3-3-3-2/-8--8--8--8--8--8--8--8-|
(Guitar 1) {.....chop & pm.......}
Nobody will change me anyway, no no way!

BRIDGE
-----------------------------------------------------------------------------|
-----------------------------------------------------------------------------|
-----------------------------------------------------------------------------|
-----------------------------------------------------------------------------|
-(2/)-5----4----3----2---/---5----4-----3----2----1--7-7-7-7-7-7-7-7-7-7-7-7-|
-----------------------------------------------------5-5-5-5-5-5-5-5-5-5-5-5-|
{......chop & pm.......}
Nobody's gonna change my world. That's something too unreal
Nobody will change the way I feel
LEAD
-20^(22`20)-17-20p17h20p17--17----------|
--------------------------20--20p17--17-|
-----------------------------------19---|
----------------------------------------|
----------------------------------------|
----------------------------------------|

E|------------------------------------------|
B|------------------------------------------|
G|1917h19p17--------------------------------|
D|----------19p17h19p17---------------------|
A|---------------------19p17h19p17----------|
E|--------------------------------17~~(⁄12)-|
(Guitar 1)

-----------------------------------------------------|
-----------------------------------------------------|
------------------------------------------17-19^(21)-|
------------------------17-19p17--17-19p17-----------|
------15-17p15--15h17/19--------19-------------------|
-15h18--------18-------------------------------------|
(Guitar 1)

-----------------------------------------------------------------------------|
-----------------------------------------------------------------------------|
-----------------------------------------------------------------------------|
-----------------------------------------------------------------------------|
-(2/)-5----4----3----2---/---5----4-----3----2----1--7-7-7-7-7-7-7-7-7-7-7-7-|
-----------------------------------------------------5-5-5-5-5-5-5-5-5-5-5-5-|
(Guitar 2) {......chop & pm.......}

-----------------------------------20^(22)-20-17-20p17----------------------|
--20^(22)-20-17-20p17--17-20/22~~---------------------17-20-20p17-------17~-|
---------------------19------------------------------------------19^(21)----|
----------------------------------------------------------------------------|
----------------------------------------------------------------------------|
----------------------------------------------------------------------------|
(Guitar 1)

--------------------------------------------------------------------|
------------------------------------------------------17------------|
-17-19-17-19p17--17-19p17--17-19p17------------19^(21)---17-19p17---|
---------------19--------19--------19p17--17h19------------------19-|
----------------------------------------19--------------------------|
--------------------------------------------------------------------|
(Guitar 1)

------------------------------------|
------------------------------------|
-17-h19p17--17-19p17--17-19p17------|
----------19--------19--------19-17-|
------------------------------------|
------------------------------------|

E|----------------------------------------------|
B|----------------------------------------------|
G|----------------------------------------------|
D|-19p17--17-19p17--17-19p17--------------------|
A|------19--------19--------19p17---------------|
E|-------------------------------17~~~~~~~~(⁄9)-|
(Guitar 1)

-----------------------------------------------------------------------------|
-----------------------------------------------------------------------------|
-----------------------------------------------------------------------------|
-----------------------------------------------------------------------------|
-(2/)-5----4----3----2---/---5----4-----3----2----1--7-7-7-7-7-7-7-7-7-7-7-7-|
-----------------------------------------------------5-5-5-5-5-5-5-5-5-5-5-5-|
(Guitar 2) {......chop & pm.......}

----------------------------------------|
----------------------------------------|
----------------------------------------|
-10--------5-------10-------------------|
-10--------5-------10--{Let Chord Ring}-|
--8--------3--------8-------------------|
(Guitar 1)

-----------------------------------------------------------|
--------------------------------6-----6---------6-------6--|
----------------------------6--5--5--6-5-5--6--5--5--6-5-5-|
-----------------------------------------------------------|
-----------------------------------------------------------|
-----------------------------------------------------------|
{Keyboard adapted for Guitar}

-------------------------------------------------------------------------------|
-------------------------------------------------------------------------------|
-------------------------------------------------------------------------------|
-3/10-------------------10⁄6------------------6⁄3-------------------------3/10-|
-3/10-------------------10⁄6------------------6⁄3-------------------------3/10-|
-1/-8--------------------8⁄4------------------4⁄1-------------------------1/-8-|
(Guitar 1)
So listen to me now, hear what I say, yeah. Please give me time to make it up.

-----------------------------------------------------------|
----------------20~~~~~~~~~~~~~~~~~~~~~~~~~~~~~~~~~~~~~~~~-|
-----------------------------------------------------------|
-----------------------------------------------------------|
-----------------------------------------------------------|
-----------------------------------------------------------|
(Guitar 2)

----------------------------------------------------------------|
----------------------------------------------------------------|
----------------------------------------------------------------|
------3/10-------------------10⁄6---------------------------6⁄3-|
------3/10-------------------10⁄6---------------------------6⁄3-|
------1/-8--------------------8⁄4---------------------------4⁄1-|
(Guitar 1)
If there's a God up there, well, I hope he helps me!
I need him now to set me free.

------------------------------------------------------------------------------|
------------------------------------------------------------------------------|
-(17⁄6)-8p5-5~~~~~~~~~~~~~------------------------------------------5~~-7-5~~-|
-(17⁄6)------------------------------------------------------5-7p5-5----------|
---------------------------(12⁄7)-5p3~~~~~~~~~~~~~~~----3h5/7-----7-----------|
-----------------------------------------------------3h5----------------------|
(Guitar 2)

CHOURSE
---------------------------------------------------------|
---------------------------------------------------------|
---------------------------------------------------------|
----------13-------------------------------xx--6--6-6--6-|
----6-5-6-13-------------------------------xx--6--6-6--6-|
-6-8-8----11-------------------------------xx--4--4-4--4-|
(Guitar 1)
'Cause it may be that it's over for me

----------------------------------------------------------------------|
--------------------------------------------------------13⁄-11-13~~~~-|
----------------------------------------------------------------------|
----------------------------------------------------------------------|
----------------------------------------------------------------------|
----------------------------------------------------------------------|
(Guitar 2)

---------------------------------------------------|
---------------------------------------------------|
---------------------------------------------------|
-6⁄3------------------------3/10---------10---8--6-|
-6⁄3-{Strum Chord}----------3/10-{Strum}-10---8--6-|
-4⁄1------------------------1/-8----------8---6--4-|
(Guitar 1)
If you don't hear the things that I say, today

-------------------------------------------------------------------------|
---------------11^(13)-8-11--8-------------------------------------------|
---------------------------10-10p8---------------8-10-8h10p8-8-8h10p8----|
----------------------------------10~~-------8-10--------------------10~-|
--------------------------------------(6/)-10----------------------------|
-------------------------------------------------------------------------|
(Guitar 2)

------------------------------------------------------------------|
------------------------------------------------------------------|
------------------------------------------------------------------|
-6---6---6---6⁄3---3---3---3---3/10---10---10⁄5---5---5---5--4/10-|
-6---6---6---6⁄3---3---3---3---3/10---10---10⁄5---5---5---5--4/10-|
-4---4---4---4⁄1---1---1---1---1/-8----8----8⁄3---3---3---3--2/-8-|
(Guitar 1)
Nobody will change me anyway, no no way!

------------------------------------------------------------|
------------------------------------------------------------|
--8h10p8--8-------------------------------------------------|
--------10-10p8--------5h7p5-5------------------------------|
---------------8~~~~--------7--7-5⁄3~~~~~~-----6h8/10~~~~~~-|
--------------------------------------------6h8-------------|
(Guitar 2)

BRIDGE
-----------------------------------------------------------------------------|
-----------------------------------------------------------------------------|
-----------------------------------------------------------------------------|
-----------------------------------------------------------------------------|
-(2/)-5----4----3----2---/---5----4-----3----2----1--7-7-7-7-7-7-7-7-7-7-7-7-|
-----------------------------------------------------5-5-5-5-5-5-5-5-5-5-5-5-|
{......chop & pm.......}
Nobody's gonna change my world. That's something too unreal
Nobody will change the way I feel

LEAD
-20^(22`20)-17-20p17h20p17--17--------|
--------------------------20--20p17---|
-----------------------------------19-|
--------------------------------------|
--------------------------------------|
--------------------------------------|

E|--------------------------------------------|
B|17------------------------------------------|
G|--1917h19p17--------------------------------|
D|------------19p17h19p17---------------------|
A|-----------------------19p17h19p17----------|
E|----------------------------------17~~(⁄12)-|
(Guitar 1)

------------------------------|
------------------------19-19-|
------------------------------|
------------------------------|
------15-17p15--15h17/19------|
-15h18--------18--------------|

E|-----------------------------------------------------|
B|-17h20 tr~~------------------------------------------|
G|-----------17h19 tr~~--------------------------------|
D|---------------------17h19 tr~~⁄15h17 tr~~-----------|
A|------------------------------------------15h17 tr~~-|
E|-----------------------------------------------------|
(Guitar 1)

--------------------------------------------------------16~~-|
-----------------------------------------------17h19^(21)----|
------------------------------------------17h19--------------|
------------------------17-19p17--17-19p17-------------------|
------15-17p15--15h17/19--------19---------------------------|
-15h18--------18---------------------------------------------|
(Guitar 1)

-----------------------------------------------------------------------------|
-----------------------------------------------------------------------------|
-----------------------------------------------------------------------------|
-----------------------------------------------------------------------------|
-(2/)-5----4----3----2---/---5----4-----3----2----1--7-7-7-7-7-7-7-7-7-7-7-7-|
-----------------------------------------------------5-5-5-5-5-5-5-5-5-5-5-5-|
(Guitar 2) {......chop & pm.......}

Black Sabbath - You Won't Change Me (Part 2)

From Black Sabbath's "Technical Esctasy" Album November, 1976

Tune up to C (444Hz),Andante, 80 beats/min., 4/4 count

NOTE: Lyrics may not match written music or may be incorrect.
Multiple guitar parts may not align due to space constraints.


---17-------------------------------------------------------------------------|
-17--20-17h20p17--17---------------------------20-17h20p17--17----------------|
----------------20--17h20p17--17--------------------------20--17h20p17--------|
----------------------------19--17h19p17h19--17-----------------------17/19~~-|
-------------------------------------------19---------------------------------|
------------------------------------------------------------------------------|
(Guitar 1)

-------------------------------------------|
-------------------------------------------|
-19^(21)-17-19p17-----------------17h19p17-|
-----------------19-17⁄15-15h17/19---------|
-------------------------------------------|
-------------------------------------------|

E|-----------------------17~~--19^(21~~)-|
B|-------------17-20^(22)----------------|
G|---17-19^(21)--------------------------|
D|-19------------------------------------|
A|---------------------------------------|
E|---------------------------------------|
(Guitar 1)

--------------------------------------------|
--------------------------------------------|
--------------------------------------------|
-17^(19`17)-19-19-17^(19`17)-19-17⁄15-------|
-------------------------------------17~~~~-|
--------------------------------------------|
{slur bend}
(Guitar 1)

-----------------------------------------------------------------------------|
-----------------------------------------------------------------------------|
-----------------------------------------------------------------------------|
-----------------------------------------------------------------------------|
-(2/)-5----4----3----2---/---5----4-----3----2----1--7-7-7-7-7-7-7-7-7-7-7-7-|
-----------------------------------------------------5-5-5-5-5-5-5-5-5-5-5-5-|
(Guitar 2) {......chop & pm.......}

----------------------------------------------------------------|
----------------------------------------------------------------|
-17^(18)-----------------------------------------------------17-|
-17^(18)-17-15-17p15-------------------------------15h17/19~~---|
--------------------17~-17p15h17p15-----------15h17-------------|
-----------------------------------15-17-15h17------------------|
(Guitar 1)

------------------------------------------|
-18-18-18p15--15-18p15--15-18p15--18p15---|
------------17--------17--------17-----17-|
------------------------------------------|
------------------------------------------|
------------------------------------------|

E|---------------------------------------------------|
B|15-18p15--15-18p15--15-18p15--15-18p15--15-18p15---|
G|--------17--------17--------17--------17--------17-|
D|---------------------------------------------------|
A|---------------------------------------------------|
E|---------------------------------------------------|
(Guitar 1)

--------------------------------------------|
--------------------------------------------|
-15-15h17 tr~~~~~~~~~~~~~-17p15-----14~~~~--|
-------------------------------17-15--------|
--------------------------------------------|
--------------------------------------------|

E|----------------------------------------------|
B|----------------------------------------------|
G|-12h14p12--------12-14-12-12h14p12---12-------|
D|---------14-12-14-----------------14---14-----|
A|------------------------------------------12~-|
E|----------------------------------------------|
(Guitar 1)

-----------------------------------------------------------------------------
-----------------------------------------------------------------------------
-----------------------------------------------------------------------------
-----------------------------------------------------------------------------
-(2/)-5----4----3----2---/---5----4-----3----2----1--7-7-7-7-7-7-7-7-7-7-7-7-
-----------------------------------------------------5-5-5-5-5-5-5-5-5-5-5-5-
(Guitar 2) {......chop & pm.......}

----------------------------------------|
----------------------------------------|
----------------------------------------|
-10--------5-------10-------------------|
-10--------5-------10--{Let Chord Ring}-|
--8--------3--------8-------------------|
(Guitar 1)
m>>>>>>>>>>>>>>>>>>>>>>>>>>>>>>>>>>>>>>>>>>>>f
------------------------------------------------------------------------------|
------------------6-----6---------6-------6-------6-----6---------6-------6---|
---------------6--5--5--6-5-5--6--5--5--6-5-5--6--5--5--6-5-5--6--5--5--6-5-5-|
------------------------------------------------------------------------------|
------------------------------------------------------------------------------|
------------------------------------------------------------------------------|
{Keyboard adapted for Guitar} {begin fade}

Тональность:

Это должно быть в ТОП-листе! - Топ-лист композиций



Назад
Рекомендуем посмотреть другие песни исполнителя «Black Sabbath»:

  • Комменты Fb ()
  • Комменты ВК



Добавить в Избранное Браузера
Сохранить здесь Очистить


x

0


+
-

+
-

-

Авторизация





Зарегистрироваться

M

Дата и время

  • 18:40:35
     

Социальные ссылки


Наши приложения

  • Muzbank App Play Market
  • Muzbank Amazon App