MUZBANK



A MOST COMPLETE BANK OF MUSIC INFORMATION

МУЗЫКАЛЬНО-ИНФОРМАЦИОННЫЙ БАНК





BBlack Sabbath • Zero the Hero (аккорды и текст - chords & lyrics)


645

Print

Видео «Zero the Hero (Black Sabbath)»

Видео клипы к песне подбираются автоматически сайтом youtube. Возможны некоторые несоответствия клипов песне.

↑ Спрятать рекламу ↑






LEAD

----------------------------6-6-7h9------------------------------------(
--(7/)-9-(7/)-9~~~~~⁄⁄⁄⁄(5)--9------9/11~~~~~~⁄6)----------------------
--------------------------------------------------6/8~~~-9-8~~-8-6~~~--
-----------------------------------------------------------------------
-----------------------------------------------------------------------
-----------------------------------------------------------------------
(Guitar 1)
Heavy Reverb throughout lead

--------------------------------------------------------------------
--------------------------------------------------------------------
--------------------------------------------------------------------
--------------------------------------------------------------------
------------------------2--------------------------------2----------
-1-2-4-4--1-2-4-4--1-2-4-4-1-4-4--1-2-4-4--1-2-4-4--1-2-4-4-1-4-4---

(Guitar 2)

-------------------------------------------------------
-------------------------------------11~~~~⁄(7)--------
-----4~~-4-6^(8)-4---4---4--4~~⁄2-4h6------------------
-4-6--------------6~--6---6----------------------------
-------------------------------------------------------
-------------------------------------------------------

(Guitar 1)

--------------------------------------------------------------------
--------------------------------------------------------------------
--------------------------------------------------------------------
--------------------------------------------------------------------
------------------------2--------------------------------2----------
-1-2-4-4--1-2-4-4--1-2-4-4-1-4-4--1-2-4-4--1-2-4-4--1-2-4-4-1-4-4---

(Guitar 2)

----------------------------------------------------------
-11h12h14p12p11h14p12p11 tr~~~~~~-13-13~~~/12-12~~~~(⁄7)--
----------------------------------------------------------
----------------------------------------------------------
----------------------------------------------------------
----------------------------------------------------------
(Guitar 1)

--------------------------------------------------------------------
--------------------------------------------------------------------
--------------------------------------------------------------------
--------------------------------------------------------------------
------------------------2--------------------------------2----------
-1-2-4-4--1-2-4-4--1-2-4-4-1-4-4--1-2-4-4--1-2-4-4--1-2-4-4-1-4-4---

(Guitar 2)

-6-6-7h9p7p6-----------------------------------------------------4------------
--9---------9-------------------------------------------------4h7--7p4-7p4h7--
-------------6h8 tr~~-8~~⁄4~~--------4^(5)~-4-4^(5)~--4^(5)h6-----------------
-----------------------------6~--4h6-------6---------6------------------------
------------------------------------------------------------------------------
------------------------------------------------------------------------------

(Guitar 1)

--------------------------------------------------------------------
--------------------------------------------------------------------
--------------------------------------------------------------------
--------------------------------------------------------------------
------------------------2--------------------------------2----------
-1-2-4-4--1-2-4-4--1-2-4-4-1-4-4--1-2-4-4--1-2-4-4--1-2-4-4-1-4-4---

(Guitar 2)

--------4⁄2-2/4---------------------------14-16-16p14-16p14 tr~~-------------
-4~~-4h7-------7-4-4---------------(/9)-16----------------------16p14 tr~~---
----6---------------4-4h6p4--------------------------------------------------
---------------------------6~~~~---------------------------------------------
-----------------------------------------------------------------------------
-----------------------------------------------------------------------------
(Guitar 1)

--------------------------------------------------------------------
--------------------------------------------------------------------
--------------------------------------------------------------------
--------------------------------------------------------------------
------------------------2--------------------------------2----------
-1-2-4-4--1-2-4-4--1-2-4-4-1-4-4--1-2-4-4--1-2-4-4--1-2-4-4-1-4-4---

(Guitar 2)


----------------------16p14--14~~--14/16---14h16--22^(24⁄16)---
---------------------------16----16------16--------------------
-16p14 tr~~----------------------------------------------------
-----------15p13 tr~~------------------------------------------
---------------------------------------------------------------
---------------------------------------------------------------
(Guitar 1)

--------------------------------------------------------------------
--------------------------------------------------------------------
--------------------------------------------------------------------
--------------------------------------------------------------------
------------------------2--------------------------------2----------
-1-2-4-4--1-2-4-4--1-2-4-4-1-4-4--1-2-4-4--1-2-4-4--1-2-4-4-1-4-4---

(Guitar 2)


-22-20-19-20-22-19-20-20p19----------------------|
---------------------------22-20^(22r20)---------|
----------------------------------------13h15p13-|
-------------------------------------------------|
-------------------------------------------------|
-------------------------------------------------|

E|------------------13-15-15-16-18-15--
B|-------------13-15-------------------
G|--------13-15------------------------
D|-(/9)-15-----------------------------
A|-------------------------------------
E|-------------------------------------
(Guitar 1)

--------------------------------------------------------------------
--------------------------------------------------------------------
--------------------------------------------------------------------
--------------------------------------------------------------------
------------------------2--------------------------------2----------
-1-2-4-4--1-2-4-4--1-2-4-4-1-4-4--1-2-4-4--1-2-4-4--1-2-4-4-1-4-4---

(Guitar 2)

-18-15-22^24(⁄18)----------------18^19~~~sr18⁄12-18p16--18p16 tr~~--
--------------------------------------------------------------------
------------------16-17-17p16---------------------------------------
-----------------------------18~~-----------------------------------
--------------------------------------------------------------------
--------------------------------------------------------------------
(Guitar 1)

--------------------------------------------------------------------
--------------------------------------------------------------------
--------------------------------------------------------------------
--------------------------------------------------------------------
------------------------2--------------------------------2----------
-1-2-4-4--1-2-4-4--1-2-4-4-1-4-4--1-2-4-4--1-2-4-4--1-2-4-4-1-4-4---

(Guitar 2)

----------------------------------22^24-------------------19-18----------------
-18p16 tr~~---------------------------------22~-20^(22⁄19)-----22-22p20--20h22-
------------18p16 tr~~-----------------18h20---------------------------21------
----------------------15p13 tr~~~----------------------------------------------
-------------------------------------------------------------------------------
-------------------------------------------------------------------------------
(Guitar 1)

-------------------------------------------------------------------
-------------------------------------------------------------------
-------------------------------------------------------------------
-------------------------------------------------------------------
------------------------2--------------------------------2---------
-1-2-4-4--1-2-4-4--1-2-4-4-1-4-4--1-2-4-4--1-2-4-4--1-2-4-4-1-4-4--

(Guitar 2)

-------------------------------------------------------------------
-------------------------------------------------------------------
-------------------------------------------------------------------
-------------------------------------------------------------------
-------------------------------------------------------------------
------4----------------------------------6-------------------------
(Guitar 4)

----------------------------------------------------------
-20h22-22-------------------------------------------------
---------20-----------------------------21~---------------
-----------21h22-18~--21-22-18~-18-21-22----22r21-18~~----
----------------------------------------------------------
----------------------------------------------------------
(Guitar 1)

-------------------------------------------------------------------
-------------------------------------------------------------------
-------------------------------------------------------------------
-------------------------------------------------------------------
------------------------2--------------------------------2---------
-1-2-4-4--1-2-4-4--1-2-4-4-1-4-4--1-2-4-4--1-2-4-4--1-2-4-4-1-4-4--

(Guitar 2)

-------------------------------------------------------------------
-------------------------------------------------------------------
-------------------------------------------------------------------
-------------------------------------------------------------------
-------------------------------------------------------------------
-----7------------------------------------0------------------------
(Guitar 4)

-15^17r15-15-12-15^17r15-15-12-15^17r15-15-12-15^17r15-15-12-15^17r15-15-12-
----------------------------------------------------------------------------
----------------------------------------------------------------------------
----------------------------------------------------------------------------
----------------------------------------------------------------------------
----------------------------------------------------------------------------
(Guitar 1)

-------------------------------------------------------------------
-------------------------------------------------------------------
-------------------------------------------------------------------
-------------------------------------------------------------------
------------------------2--------------------------------2---------
-1-2-4-4--1-2-4-4--1-2-4-4-1-4-4--1-2-4-4--1-2-4-4--1-2-4-4-1-4-4--

(Guitar 2)

-------------------------------------------------------------------
-------------------------------------------------------------------
-------------------------------------------------------------------
-------------------------------------------------------------------
-------------------------------------------------------------------
------4----------------------------------6-------------------------
(Guitar 4)

-------------------------------------------------------------------
-------------------------------------------------------------------
-------------------------------------------------------------------
-------------------------------------------------------------------
------------------------2--------------------------------2---------
-1-2-4-4--1-2-4-4--1-2-4-4-1-4-4--1-2-4-4--1-2-4-4--1-2-4-4-1-4-4--

(Guitar 2)

-------------------------------------------------------------------
-------------------------------------------------------------------
-------------------------------------------------------------------
-------------------------------------------------------------------
-------------------------------------------------------------------
-----7------------------------------------0------------------------
(Guitar 4)

-15^17r15-15-12-15^17r15-15-12-15^17r15-15-12--20^22r20-16--15^17r15-15-12-
---------------------------------------------------------------------------
---------------------------------------------------------------------------
---------------------------------------------------------------------------
---------------------------------------------------------------------------
---------------------------------------------------------------------------
(Guitar 1)

-15^17r15-15-12--20^22r20-16--20^22r20-16--|
-------------------------------------------|
-------------------------------------------|
-------------------------------------------|
-------------------------------------------|
-------------------------------------------|

E|-15^17r15-15-12--16p15p12-16p15p12-16~~~⁄12--
B|---------------------------------------------
G|---------------------------------------------
D|---------------------------------------------
A|---------------------------------------------
E|---------------------------------------------
(Guitar 1)

------------------------------------------------------------------------
------------------------------------------------------------------------
------------------------------------------------------------------------
------------------------------------------------------------------------
--------------------------2----------------------------------2----------
-1-2-4~~---1-2-4~~---1-2-4-4-1-4~~---1-2-4~~---1-2-4~~--1-2-4--4-1-4~~--
(Guitar 1)
You stand there captain, we all look. You really are a mediocre

------------------------------------------------------------------------
------------------------------------------------------------------------
------------------------------------------------------------------------
------------------------------------------------------------------------
--------------------------2----------------------------------2----------
-1-2-4~~---1-2-4~~---1-2-4-4-1-4~~---1-2-4~~---1-2-4~~--1-2-4--4-1-4~~--
(Guitar 1)
You're the champion in the Acme form book, but I think you're just a chump

------------------------------------------------------------------------
------------------------------------------------------------------------
------------------------------------------------------------------------
------------------------------------------------------------------------
--------------------------2----------------------------------2----------
-1-2-4~~---1-2-4~~---1-2-4-4-1-4~~---1-2-4~~---1-2-4~~--1-2-4--4-1-4~~--
(Guitar 1)
Face down life it's so much of a pity, they love the way you're walkin' 'round

------------------------------------------------------------------------
------------------------------------------------------------------------
------------------------------------------------------------------------
------------------------------------------------------------------------
--------------------------2----------------------------------2----------
-1-2-4~~---1-2-4~~---1-2-4-4-1-4~~---1-2-4~~---1-2-4~~--1-2-4--4-1-4~~--
(Guitar 1)
Sit with your balls and your head full of nothing, it's easy for ya sucker but
you really need stuffing.

CHOURSE
Eb C# C# A#
-----------------------------------------------------------------
-----------------------------------------------------------------
-----------------------------------------------------------------
-------------------------------------------------8---6---6-------
--------------------------4----------------------6---4---4---8---
-3-4-6~~---3-4-6~~---3-4-6-6-4-6~-3-4----------------------4-6---
What 'cha gonna be, what 'cha gonna be Brother? Zero the Hero

Eb C# C# A#
----------------------------------------------------------------
----------------------------------------------------------------
----------------------------------------------------------------
------------------------------------------------8---6---6-------
-------------------------4----------------------6---4---4---8---
-3-4-6-6--3-4-6-6---3-4-6-6-4-6-6-3-4---------------------4-6---

Don't 'cha wanna be, don't 'cha wanna be Brother? Zero the Hero

Eb C# C# A#
----------------------------------------------------------------
----------------------------------------------------------------
----------------------------------------------------------------
------------------------------------------------8---6---6-------
-------------------------4----------------------6---4---4---8---
-3-4-6-6--3-4-6-6---3-4-6-6-4-6-6-3-4---------------------4-6---

When 'ya gonna be, when ya gonna be Brother? Zero the Hero

Eb C# C# A#
----------------------------------------------------------------
----------------------------------------------------------------
----------------------------------------------------------------
------------------------------------------------8---6---6-------
-------------------------4----------------------6---4---4---8---
-3-4-6-6--3-4-6-6---3-4-6-6-4-6-6-3-4---------------------4-6---

Impossibility 'pissabolity mother We'll need a Hero

-------------------------------------------------------------------
-------------------------------------------------------------------
-------------------------------------------------------------------
-------------------------------------------------------------------
------------------------2--------------------------------2---------
-1-2-4-4--1-2-4-4--1-2-4-4-1-4-4--1-2-4-4--1-2-4-4--1-2-4-4-1-4-4--

(Guitar 1)

--------------------------22^24⁄20--20-18⁄12---------------22^24--------
-----------------------------------------------------------------20h22--
--------------------x-x-------------------------------------------------
--------------------x-x-------------------------------------------------
------------------------------------------------------------------------
------------------------------------------------------------------------
(Guitar 2) vp in

-------------------------------------------------------------------
-------------------------------------------------------------------
-------------------------------------------------------------------
-------------------------------------------------------------------
------------------------2--------------------------------2---------
-1-2-4-4--1-2-4-4--1-2-4-4-1-4-4--1-2-4-4--1-2-4-4--1-2-4-4-1-4-4--

(Guitar 1)

--------20⁄18-20⁄18------------------18------------------------------
--------20⁄18-20⁄18------------------21------------------------------
---------------------------------------------------------------------
---------------------------------------------------------------------
---------------------------------------------------------------------
---------------------------------------------------------------------
echo
(Guitar 2 the faint lead guitar in the background)

-------------------------------------------------------------------
-------------------------------------------------------------------
-------------------------------------------------------------------
-------------------------------------------------------------------
------------------------2--------------------------------2---------
-1-2-4-4--1-2-4-4--1-2-4-4-1-4-4--1-2-4-4--1-2-4-4--1-2-4-4-1-4-4--

(Guitar 1)

--21-21^23~~~⁄18---------------12h13-15-15p13p12-15-12h13p12h13p12-12-13-15--
-------------------------14h16-----------------------------------------------
-----------------13~~~~~~----------------------------------------------------
-----------------------------------------------------------------------------
-----------------------------------------------------------------------------
-----------------------------------------------------------------------------
(Guitar 2) begin to fade out

-------------------------------------------------------------------
-------------------------------------------------------------------
-------------------------------------------------------------------
-------------------------------------------------------------------
------------------------2--------------------------------2---------
-1-2-4-4--1-2-4-4--1-2-4-4-1-4-4--1-2-4-4--1-2-4-4--1-2-4-4-1-4-4--

(Guitar 1)


---18-20~~^22~r20^22~~r20⁄18-20^22r20^22~~~⁄18------------------19^20--19^21-22/
-----------------------------------------------18-19-20~~-20⁄18------20---------
--------------------------------------------------------------------------------
--------------------------------------------------------------------------------
--------------------------------------------------------------------------------
--------------------------------------------------------------------------------
(Guitar 2)

-------------------------------------------------------------------
-------------------------------------------------------------------
-------------------------------------------------------------------
-------------------------------------------------------------------
------------------------2--------------------------------2---------
-1-2-4-4--1-2-4-4--1-2-4-4-1-4-4--1-2-4-4--1-2-4-4--1-2-4-4-1-4-4--

(Guitar 1)


------23^24⁄18------23^24r23-19/22-23^24r23-19/22------22^24-19-20-22p20-------
-19-21---------19-21------------------------------19-21------------------22⁄12-
-------------------------------------------------------------------------------
-------------------------------------------------------------------------------
-------------------------------------------------------------------------------
-------------------------------------------------------------------------------
(Guitar 2)

-------------------------------------------------------------------
-------------------------------------------------------------------
-------------------------------------------------------------------
-------------------------------------------------------------------
------------------------2--------------------------------2---------
-1-2-4-4--1-2-4-4--1-2-4-4-1-4-4--1-2-4-4--1-2-4-4--1-2-4-4-1-4-4--

(Guitar 1)


------------------------------9h12p9------------------|
----------------12-13s^15/17--------9---12-10-9-------|
-13~~~~~~~-13h15----------------------10-------11-13--|
------------------------------------------------------|
------------------------------------------------------|
------------------------------------------------------|

E|--------------------------------------
B|--------------------------------------
G|-13h15-11/13-11/13----------15~~~⁄9---
D|-------------------13~⁄9--13----------
A|--------------------------------------
E|--------------------------------------

Тональность:

Это должно быть в ТОП-листе! - Топ-лист композиций



Назад
Рекомендуем посмотреть другие песни исполнителя «Black Sabbath»:

  • Комменты Fb ()
  • Комменты ВК



Добавить в Избранное Браузера
Сохранить здесь Очистить


x

0


+
-

+
-

-

Авторизация





Зарегистрироваться

M

Дата и время

  • 05:10:21
     

Социальные ссылки


Наши приложения

  • Muzbank App Play Market
  • Muzbank Amazon App