MUZBANK


МУЗЫКАЛЬНО-ИНФОРМАЦИОННЫЙ БАНК





BBlink 182 • 21 Days (аккорды и текст - chords & lyrics)


388

Print

Видео «21 Days (Blink 182)»

Видео клипы к песне подбираются автоматически сайтом youtube. Возможны некоторые несоответствия клипов песне.

↑ Спрятать рекламу ↑






Intro

first play this
G---7-----7-----7-----7---7----
D-0---0-0---0-0---0-0---0---0--
A------------------------------
E------------------------------

Then the bass changes and plays this
G---7-----9-----11-----12---11---9-----7-----9-----11-----12--14---12---
D-0---0-0---0-0----0-0----0----0---0-0---0-0---0-0----0-0----0---0----0-
A-----------------------------------------------------------------------
E-----------------------------------------------------------------------

Intro part 2
G---7-----7---7-----7-----7---7------9-----9---9--------11--------7----
D-0---0-0---0---0-0---0-0---0---0-/7---7-7---7---7--9-9----9--5-5---5--
A----------------------------------------------------------------------
E----------------------------------------------------------------------

Verse 1 (my mind wanders...)
G----------------------------
D----------------------------
A-55555555555----------------
E-------------33333333-2222--

Then play intro part 2

then play Verse 2 (I cannot help myself anymore...)
G-----------------------------------------------------------
D-----------------------------------------------------------
A-777777777-/10101010101010-xx-5-5-xx-5-5-xx-5-5-xx-5-5-xx--
E-----------------------------------------------------------

After those verses, play the bridge (which is also the outro)
G---7-----7---7------7-----7---7------9-----9---9-------11--------7----
D-0---0-0---0---0--0---0-0---0---0-/7---7-7---7---7-9-9----9--5-5---5--
A----------------------------------------------------------------------
E----------------------------------------------------------------------

Тональность:

Это должно быть в ТОП-листе! - Топ-лист композиций



Назад
Рекомендуем посмотреть другие песни исполнителя «Blink 182»:

  • Комменты Fb ()
  • Комменты ВК



Добавить в Избранное Браузера
Сохранить здесь Очистить


x

0


+
-

+
-

-

Авторизация





Зарегистрироваться

M

Дата и время

  • 22:46:34
     

Социальные ссылки


Наши приложения

  • Muzbank App Play Market
  • Muzbank Amazon App