MUZBANK



A MOST COMPLETE BANK OF MUSIC INFORMATION

МУЗЫКАЛЬНО-ИНФОРМАЦИОННЫЙ БАНК





BBlink 182 • Action (аккорды и текст - chords & lyrics)


375

Print

Видео «Action (Blink 182)»

Видео клипы к песне подбираются автоматически сайтом youtube. Возможны некоторые несоответствия клипов песне.

↑ Спрятать рекламу ↑





Intro:
e|-------------------|
B|-------------------|
G|-11/9-0-9-⁄13-⁄9---|
D|-11/9-0-9-⁄13-⁄9---|
A|--9/7-0-7-⁄11-⁄7---| X2
E|-------------------|

Verse:
e|-----------------|
B|-----------------|
G|-11/9-0-9-⁄13-0--|
D|-11/9-0-9-⁄13-0--|
A|--9/7-0-7-⁄11-0--| X8
E|-----------------|

Chorus:
e|----------|
B|----------|
G|----------|
D|-7--------|
A|-7--------| X1
E|-0--------|

Pre-Verse:
e|---------------------------------|
B|---------------------------------|
G|-9-9-9-11-11-11-13-13-13-14-14-14|
D|-9-9-9-11-11-11-13-13-13-14-14-14|
A|-7-7-7--9--9--9-11-11-11-12-12-12| X1
E|---------------------------------|

Intro:
e|-----------------|
B|-----------------|
G|-11/9-0-9-⁄13-0--|
D|-11/9-0-9-⁄13-0--|
A|--9/7-0-7-⁄11-0--| X2
E|-----------------|

Verse:
e|-----------------|
B|-----------------|
G|-11/9-0-9-⁄13-0--|
D|-11/9-0-9-⁄13-0--|
A|--9/7-0-7-⁄11-0--| X6
E|-----------------|

Chorus:
e|----------|
B|----------|
G|----------|
D|-7--------|
A|-7--------| X1
E|-0--------|

Bridge:
e|-----------------------------|
B|-----------------------------|
G|-----------------------------|
D|--9-9-9-9-9-9-9-9-9-9-9-9-9--|
A|--9-9-9-9-9-9-9-9-9-9-9-9-9--|
E|--7-7-7-7-7-7-7-7-7-7-7-7-7--|
Pm............................

Outro
e|-----------------------------|
B|-----------------------------|
G|-9-9-9-----------------------|
D|-9-9-9-9-9-9-11-11-11-7-7-7--|
A|-7-7-7-9-9-9-11-11-11-7-7-7--| X8
E|-------7-7-7--9--9--9-5-5-5--|

Тональность:

Это должно быть в ТОП-листе! - Топ-лист композиций



Назад
Рекомендуем посмотреть другие песни исполнителя «Blink 182»:

  • Комменты Fb ()
  • Комменты ВК



Добавить в Избранное Браузера
Сохранить здесь Очистить


x

0


+
-

+
-

-

Авторизация





Зарегистрироваться

M

Дата и время

  • 06:55:46
     

Социальные ссылки


Наши приложения

  • Muzbank App Play Market
  • Muzbank Amazon App
  • Muzbank Bitcoin13igjuWJj2R4cHiyZqP7Q3ggVvfXE9j82Q