MUZBANK


МУЗЫКАЛЬНО-ИНФОРМАЦИОННЫЙ БАНК





BBlink 182 • All The Small Things (аккорды и текст - chords & lyrics)


962

Print

Видео «All The Small Things (Blink 182)»

Видео клипы к песне подбираются автоматически сайтом youtube. Возможны некоторые несоответствия клипов песне.

↑ Спрятать рекламу ↑





Intro (x2):

e|-------------------------------------------------------|
B|-------------------------------------------------------|
G|-----------------5--------10---------------------------|
D|-(5)-----(3)-----5 (x8)---10 (x8)---5--------3XXXXXX33-|
A|-(5)-----(3)-----3---------8--------5 (x8)---3XXXXXX33-|
E|-(3)-----(1)------------------------3--------1XXXXXX11-|

Verse (x4): (P. M.)

e|-----------------------------------|
B|-----------------------------------|
G|-5---------------------------------|
D|-5 (x8)---5--------3--------5------|
A|-3--------5 (x8)---3 (x8)---5 (x8)-|
E|----------3--------1--------3------|

"Say it ain't so..."  (let chord ring)

e|---|
B|---|
G|-5-|
D|-5-|
A|-3-|
E|---|

Chorus (x2):

e|---------------------------|
B|---------------------------|
G|-5-------------------------|
D|-5 (x12)---5--------3------|
A|-3---------5 (x8)---3 (x8)-|
E|-----------3--------1------|

Repeat Intro all same as 1st time except change as follows:

e|-------------------|
B|-------------------|
G|-10--------10------|
D|-10 (x4)---10 (x4)-|
A|-8----------7------|
E|-------------------|

Repeat verse (x4)

Break @ 1:45 (palm mute):

e|-------|
B|-------|
G|-5-----|
D|-----5-|
A|-------|
E|-------|

Outro(x4):

e|---------------------------------|
B|---------------------------------|
G|-5-------------------------------|
D|-5-(x12)------5-----------3------|
A|-3------------5 (x8)------3 (x8)-|
E|--------------3-----------1------|

All the, small things
True care, truth brings
I'll take, one lift
Your ride, best trip
Always, I know
You'll be at my show
Watching, waiting, commiserating
Say it ain't so, I will not go, turn the lights off,
carry me home

Na, na...

Late night, come home
Work sucks, I know
She left me roses by the stairs, surprises let me know she cares
Say it ain't so, I will not go, turn the lights off,
carry me home

Na, na...

Say it ain't so, I will
not go, turn the lights off, carry me home
Keep your head still, I'll be your thrill,
the night will go on, my little windmill
Say it ain't so, I will not go, turn the lights off,
carry me home
Keep your head still, I'll be your thrill,
the night will go on, my little windmill

Тональность:

Это должно быть в ТОП-листе! - Топ-лист композиций



Назад
Рекомендуем посмотреть другие песни исполнителя «Blink 182»:

  • Комменты Fb ()
  • Комменты ВК



Добавить в Избранное Браузера
Сохранить здесь Очистить


x

0


+
-

+
-

-

Авторизация





Зарегистрироваться

M

Дата и время

  • 19:23:54
     

Социальные ссылки


Наши приложения

  • Muzbank App Play Market
  • Muzbank Amazon App